Bass Tabs
(THIRD DAY) OR BY ARTIST NAME (JENNIFER KNAPP)
0-9|A|B|C|D|E|F|G|H|I|J|K|L|M|N|O|P|Q|R|S|T|U|V|W|X|Y|Z

Join Us Today!

Don't strum alone...
be a part of the largest online Christian music community. Browse thousands of guitar tabs and chat w/ musicians like yourself.


It's Free!

This tab has not yet been rated for accuracy.Sorry, but you must be logged in to rate this tab.
Click here to log-in, or you can click here to register.
(Registration is free)

All songs owned by Integrity and Brentwood-Benson are used by permission. If you make copies of any song on this website, be sure to report your usage to CCLI.
song-Never Die
band-Creed
cd-Human Clay
tabbed by-Ryan Larson
Drop D tuning (DADG)


Intro:
------|--------|
-6----|-5------|
----6-|----5---|
------|--------|

Verse:
----------------|---------------|
----------------|---------------|
-------5------1-|-------5-------|
-6-1-5------0---|-6-1-5-----0-0-|

----------5h7-----------|----------3/7-|
--------------5h7-------|--------------|
-------5----------5-5h7-|-------5------|
-6-1-5------------------|-6-1-5--------|

---------------|----------------|
---------------|----------------|
-------5----1--|-------5---/5---|
-6-1-5----0----|-6-1-5---0----0-|

------------|---------5h7----|
------------|-------------5--|
------------|-------5--------|
-6-1-5-0----|-6-1-5----------|

-------------|---------5h7-----------|
-------------|-------------5h7-------|
-------5---1-|-------5---------5-5h7-|
-6-1-5---0---|-6-1-5-----------------|

-------------|-------------------|
-----------7-|-------------------|
-------5-----|-------5-----------|
-6-1-5---0---|-6-1-5----0-0--0-0-|


Chorus:
----------------------|----------------------|
----------------------|----------------------|
----------5~----------|----------5~----------|
-6~-1~-5~----0-0--0-0-|-6~-1~-5~----0-0--0-0-|

----------------------|----------------------|
----------------------|----------------------|
----------5~---0----0-|----------------------|
-6~-1~-5~----0----0---|-6~-1~-5~-0-----------|


Verse 2:
--------------|--------------|
--------------|--------------|
-------5----1-|-------5------|
-6-1-5----0---|-6-1-5----12\-|

-----------------|-------------|
-----------------|---------7---|
-------5----/5---|-------5---5-|
-6-1-5----0----0-|-6-1-5-------|

----------|--------------|
----------|--------------|
-------5--|-------5----1-|
-6-1-5----|-6-1-5----0---|

-----------------|----------5h7-----------|
-----------------|--------------5h7-------|
-------5----/5---|-------5----------5-5h7-|
-6-1-5----0----5-|-6-1-5------------------|

--------------|--------------------|
------------7-|--------------------|
--------------|-------5------------|
-6-1-5-0--0---|-6-1-5-----0-0--0-0-|

...Chorus
Bridge: x7
---------------------------------------------|
---------------------------------------------|
---------------------------------------------|
-4-5-7--8-7--4-5-7--8-7--4-5-7--8-7--4-4-5-4-|

...Chorus x2

---------|---------|
-6---5---|-6---5---|
---6---5-|---6---5-|
---------|---------|


Well there you go, I hope you enjoy playing this awesome
tune. It is a great song to add your own improvises and to
just cut loose. I tabbed the fills that they use but have
fun with this song. If you have any questions or coments
you can email me at rlars44@hotmail.com
-God Bless

Comments about this tab

No comments/corrections found. Add your own

Complimentary Christian Ringtones
Dadamobile and CGR have teamed up to bring your favorite Christian artists right to your phone. Sign up today and get 10 complementary ringtones!
Tab Country
Did you know CGR has a sister site w/ country guitar tabs? Well we do! Its called Tab Country. It has a great archive with a lot of country tabs.
Rockin Tabs
Are you looking for a site that has rock guitar tabs? Then Rockintabs.com is the place for you. It is a budding site with many rock guitar tabs. Submit your tab today.
Tab Gallery
Tab Gallery has a compilation of christian, rock, and country tabs all in one place. Come visit us.