Bass Tabs
(THIRD DAY) OR BY ARTIST NAME (JENNIFER KNAPP)
0-9|A|B|C|D|E|F|G|H|I|J|K|L|M|N|O|P|Q|R|S|T|U|V|W|X|Y|Z

Join Us Today!

Don't strum alone...
be a part of the largest online Christian music community. Browse thousands of guitar tabs and chat w/ musicians like yourself.


It's Free!

This tab has not yet been rated for accuracy.Sorry, but you must be logged in to rate this tab.
Click here to log-in, or you can click here to register.
(Registration is free)

All songs owned by Integrity and Brentwood-Benson are used by permission. If you make copies of any song on this website, be sure to report your usage to CCLI.
Title: Iowa Backroads
Artist: Roadside Monument
Album: Eight Hours Away From Being A Man
Copyright 1997 Spinning Audio Vortex (BMI)
Tabbed By: William Giacchi (xfallawakex@hotmail.com)

Standard tuning

What can be said of this song! Possibly my favorite of
Roadside Monument. They go and make an already incredible
composition even better by adding a trumpet; then they
outdo themselves by reading a portion of the amazing
"White Nights". I did my best to duplicate what Johnathon
plays, but I may be slightly off in which neck position he
plays.

First note
G---
D---
A-4-
E---

Bass part in first melody
G-------------------------------------------------------------------------
D-11-11-11-11-11-11-11-11-11-12-12-12-11-11-11-11-11-11-11-11-11-12-12-12-
A-------------------------------------------------------------------------
E-------------------------------------------------------------------------

G-------------------------------------------------------------------------
D-11-11-11-11-11-11-11-11-11-12-12-12-11-11-11-11-11-11-12-12-12-12-12-12-
A-------------------------------------------------------------------------
E-------------------------------------------------------------------------

G-------------------------------------------------------------------------
D-11-11-11-11-11-11-11-11--7---7---7----12-12-12--11----11---11--12-12-12-
A-------------------------------------------------------------------------
E-------------------------------------------------------------------------

G-------------------------------------------------------------------------
D-9------------9---9---9-------12-12-12-12-12-12-12-12--9-9-9-9-9-9-9-9---
A-------------------------------------------------------------------------
E-------------------------------------------------------------------------

G-----------------------------------------------------------------------
D-7-------------12-12-12--11-------------12-12-12-----------------------
A-----------------------------------------------------------------------
E-----------------------------------------------------------------------

G-----------------------------------------------------------------------
D-12--12h14-12-14--7---------12--12h14-12-14--7---7--7--7---------------
A-----------------------------------------------------------------------
E-----------------------------------------------------------------------

G-----------------------------------------------------------------------
D-5-5-5-5/9-9-2-2-2-0-0-0-0-0-0-0-0-0-0-0-0-0-0-0-0--7--7-7-7-7-7-7-7-7-
A-----------------------------------------------------------------------
E-----------------------------------------------------------------------

Bass part during "White Nights"
G-7-9-11-9-7---7-9-11-9-7---6-7/9-9-9-9---6-7/9-9-9-9-
D------------7------------7-------------7-------------
A-----------------------------------------------------
E-----------------------------------------------------

G-7-9-11-9-7---7-9-11-9-7---6-7/9-9-9-9---6-7/9-9-9-9-
D------------7------------7-------------7-------------
A-----------------------------------------------------
E-----------------------------------------------------

G-7-9-11-9-7---7-9-11-9-7---6-7/9-9-9-9---6-7/9-9-9-9-
D------------7------------7-------------7-------------
A-----------------------------------------------------
E-----------------------------------------------------

G-7--6--4------7---6---4----9--6-----------------------
D----------7--------------7---------------2---------2--
A------------------------------------------------------
E------------------------------------------------------

Awesome bass part that is doubled by trumpet
G-----------------------------------------------------------------
D-7-----9---10-10-10-10-10/12--12--12--12--12--12--12--12--12--12-
A-----7---7-------------------------------------------------------
E-----------------------------------------------------------------

G----------------------------------------------------------------
D-7-----9---5----5--5/7------------------------------------------
A-----7---7------------------5--5--5--5--5--5--5--5--5--5--5--5--
E----------------------------------------------------------------

End on
G---
D---
A-0-
E---

Then
G---
D---
A-4-
E---

Comments about this tab

No comments/corrections found. Add your own

Complimentary Christian Ringtones
Dadamobile and CGR have teamed up to bring your favorite Christian artists right to your phone. Sign up today and get 10 complementary ringtones!
Tab Country
Did you know CGR has a sister site w/ country guitar tabs? Well we do! Its called Tab Country. It has a great archive with a lot of country tabs.
Rockin Tabs
Are you looking for a site that has rock guitar tabs? Then Rockintabs.com is the place for you. It is a budding site with many rock guitar tabs. Submit your tab today.
Tab Gallery
Tab Gallery has a compilation of christian, rock, and country tabs all in one place. Come visit us.