Bass Tabs
(THIRD DAY) OR BY ARTIST NAME (JENNIFER KNAPP)
0-9|A|B|C|D|E|F|G|H|I|J|K|L|M|N|O|P|Q|R|S|T|U|V|W|X|Y|Z

Join Us Today!

Don't strum alone...
be a part of the largest online Christian music community. Browse thousands of guitar tabs and chat w/ musicians like yourself.


It's Free!

Project 86 - Stein's Theme

This tab has been rated a 4.50 out of 5 for accuracy. (2 votes)Sorry, but you must be logged in to rate this tab.
Click here to log-in, or you can click here to register.
(Registration is free)

All songs owned by Integrity and Brentwood-Benson are used by permission. If you make copies of any song on this website, be sure to report your usage to CCLI.
Artist: Project 86 
Song: Stein’s Theme 
Album: Drawing Black Lines 
Tabbed By: Blueflamer 

Not perfect but it’s close... 

Drop D Tuning 

Intro 
G ----------------------- 
D --7---7----------------x8 
A ----5---5-67----------- 
D ----------------------- 
Solo (let last note ring) 
G----------------------------------------------------- 
D-77-6----------77-6---------------------------------- 
A---5-5775665857--5-57756658-------------------------- 
D----------------------------------------------------- 
Verse 
G----------------------------------------------------- 
D---------------77-6----------------------------------x3 
A-----------------5-5775665857------------------------ 
D-00-000-000-000-------------------------------------- 
This last part of the verse changes up a little right before  
the chorus when he is saying “he’s all about this sound...” 
G----------------------------------------------------- 
D---------------77-6---------------------------------- 
A-----------------5-57756658-------------------------- 
D-00-000-000-000-------------------------------------- 
(Let the last note ring) 
Chorus 
G------------------------- 
D-------------------------x4 
A------------------------- 
D-6--5-0---xx------------- 
After the ghost notes the guitar hits this one 
D------------------------- 
A------------------------- 
D-9~---------------------- 
Verse 

Chorusx8 

Refrain (low D string) 
D-111-111-666-111-111-XXXX-x6 

D-11-11-66-11-11----------x3  
Chorus#2 (you hate us cuz we’ll never go away...) 
G-------------------------- 
D-------------------------- 
A-------------------------- 
D-0---12~0----------------- 
Or... 
G-------------------------- 
D-------------------------- 
A------5~------------------ 
D-0------0----------------- 
These both sounded close so you decide... 
     
Chorus 
     
Fill Something like this on the Low D string 
D--2210-- 
      
Chorus#2 
      
Steve from Project 86 plays with a very treble-like 
sound and uses a pick. It helps to crank the tone on  
your bass and the high or treble knob on your amp.  
So there it is. God Bless and have fun!

Comments about this tab

No comments/corrections found. Add your own

Complimentary Christian Ringtones
Dadamobile and CGR have teamed up to bring your favorite Christian artists right to your phone. Sign up today and get 10 complementary ringtones!
Tab Country
Did you know CGR has a sister site w/ country guitar tabs? Well we do! Its called Tab Country. It has a great archive with a lot of country tabs.
Rockin Tabs
Are you looking for a site that has rock guitar tabs? Then Rockintabs.com is the place for you. It is a budding site with many rock guitar tabs. Submit your tab today.
Tab Gallery
Tab Gallery has a compilation of christian, rock, and country tabs all in one place. Come visit us.