Bass Tabs
(THIRD DAY) OR BY ARTIST NAME (JENNIFER KNAPP)
0-9|A|B|C|D|E|F|G|H|I|J|K|L|M|N|O|P|Q|R|S|T|U|V|W|X|Y|Z

Join Us Today!

Don't strum alone...
be a part of the largest online Christian music community. Browse thousands of guitar tabs and chat w/ musicians like yourself.


It's Free!

MxPx - Responsibility

This tab has been rated a 5.00 out of 5 for accuracy. (2 votes)Sorry, but you must be logged in to rate this tab.
Click here to log-in, or you can click here to register.
(Registration is free)

All songs owned by Integrity and Brentwood-Benson are used by permission. If you make copies of any song on this website, be sure to report your usage to CCLI.
song: Responsibility
artist: mxpx (written by Mike Hererra)
album: The Ever Passing Moment
key: E Major
tabbed by: Aaron Caffrey
   (email: doublebass2venezuela@hotmail.com)


NOTE: If this is too high up the neck for you, sorry.  I'm not Mike; I don't
know how he plays, but I play up high.  eMail me if you want me to write this
for you low-riders.

                                                                   
G-----|--------||
D---4:|--------||
A---4:|--7-----||
E-----|-----7--||
                                                                        

play 4x                                                                        
G-----------------------------------------------------------------------
D-----------------------------------------------------------------------
A---7--7--7--7--7--7--7--7--------------7-------------------------------
E---------------------------5--5--5--5-----7----------------------------
                                                                        

    then (I don't want this responibility...)                                 
G---|--------------------------|----------------------------------------
D---|--------------------------|----------------------------------------
A---|--7--7--------------------|----------------------------------------
E---|--------------5--5--------|----------------------------------------
                                                                        

                                                                        
G-----------------------------------------------------------------------
D-----------------------------------------------------------------------
A---7--7----------------------------------------------------------------
E------------------5--5--5--5--5--5--5----------------------------------
                                                                        

    (don't use me, because I don't agree..)                                    
G---|--------------------------|----------------------------------------
D---|--------------------------|----------------------------------------
A---|--7--7--------------------|----------------------------------------
E---|--------------5--5--------|----------------------------------------
                                                                        

                                                                        
G---------------------------------------|-------------------------------
D---------------------------------------|-------------------------------
A---7--7--------------------------------|-------------------------------
E------------------5--5--5--5--5--5--5--|-------------------------------
                                                                        

    (Why lie do or die?)                                                
G---------------------------------------------|-------------------------
D---------------------------------------------|-------------------------
A---------------------------------------------|-------------------------
E---7--7--7--7--7--7--7--5--5--5--5--5--5--5--|-------------------------
                                                                        

                                                 (Why lie? do or..)             
G---------------------------------------------|--------|----------------
D---------------------------------------------|--------|----------------
A---------------------------------------------|--------|----------------
E---0--0--0--0--5--5--5--0--0--0--0--5--5--5--|--7--5--|----------------
                                                                        

(Responsibility; what's that?)(Responsibility; not quite yet...)       
G---------------------------|--------------------------|----------------
D---------------------------|--------------------------|----------------
A---7--7--7--7--------------|--7--7--7--7--------------|----------------
E---------------5--5--7--7--|--------------5--5--7--7--|----------------
                                                                        

    (Responsibility; what's that?)                                        
G---------------------------|-------------------------------------------
D---------------------------|-------------------------------------------
A---7--7--7--7--------------|-------------------------------------------
E---------------5--5--7--7--|-------------------------------------------
                                                                        

(I don't wanna think about it we'd be better off without it...)                          
G---------------------|-------------------------------------------------
D---------------------|-------------------------------------------------
A---------------------|-----------------------------------7-------------
E---9--------5--7--7--|-----7--7--7--7--7--7--7--7--7--7-----7----------
                                                                        

                                   (You think I'm so simplistic)        
G---||-------------------------||--------------------------|------------
D---||*-----------------------*||--------------------------|------------
A---||*--7--7-----------7-----*||--7--7--------------------|------------
E---||---------------------7---||--------------5--5--------|------------
                                                                        

                                                                        
G---------------------------------------|-------------------------------
D---------------------------------------|-------------------------------
A---7--7--------------------------------|-------------------------------
E------------------5--5--5--5--5--5--5--|-------------------------------
                                                                        

    (I'm on to you and your tricks...)                                  
G---------------------------|--------------------------------------|----
D---------------------------|--------------------------------------|----
A---7--7--------------------|--7--7--------------------------------|----
E---------------5--5--------|-----------------5--5--5--5--5--5--5--|----
                                                                        

    (Why lie do or die?)                                                
G---------------------------------------------|-------------------------
D---------------------------------------------|-------------------------
A---------------------------------------------|-------------------------
E---7--7--7--7--7--7--7--5--5--5--5--5--5--5--|-------------------------
                                                                        

                                                 (Why lie? do or...)        
G---------------------------------------------|--------|----------------
D---------------------------------------------|--------|----------------
A---------------------------------------------|--------|----------------
E---0--0--0--0--5--5--5--0--0--0--0--5--5--5--|--7--5--|----------------
                                                                        

(Responsibility what's that) (Responsibility; not quite yet...)       
G---------------------------|--------------------------|----------------
D---------------------------|--------------------------|----------------
A---7--7--7--7--------------|--7--7--7--7--------------|----------------
E---------------5--5--7--7--|--------------5--5--7--7--|----------------
                                                                        

    (Responsibility; what's that?)                                     
G---------------------------|-------------------------------------------
D---------------------------|-------------------------------------------
A---7--7--7--7--------------|-------------------------------------------
E---------------5--5--7--7--|-------------------------------------------
                                                                        

    (I don't wanna think about it maybe better off without it...)                            
G---------------------|--------------------------------------|----------
D---------------------|--------------------------------------|----------
A---------------------|--------------------------------------|----------
E---9--------5--7--7--|-----7--7--7--7--7--7--7--7--7--7-----|----------
                                                                        

    (I'm still young...)                                                
G---------------------------------------------------|-------------------
D---------------------------------------------------|-------------------
A---7--7--7--7--7--7--7--7--7--7--7--7--7--7--7--7--|-------------------
E---------------------------------------------------|-------------------
                                                                        

    (and I'd like to stay that way...)                                  
G---------------------------------------------------|-------------------
D---------------------------------------------------|-------------------
A---------------------------------------------------|-------------------
E---9--9--9--9--9--9--9--9--9--9--9--9--9--9--9--9--|-------------------
                                                                        

    (cuz growing up won't make                                          
G---------------------------------------------------|-------------------
D---------------------------------------------------|-------------------
A---------------------------------------------------|-------------------
E---7--7--7--7--7--7--7--7--7--7--7--7--7--7--7--7--|-------------------
                                                                        

    everything okay...)                                                 
G---------------------------------------------|-------------------------
D---------------------------------------------|-------------------------
A---------------------------------------7-----|-------------------------
E---5--5--5--5--5--5--5--5--5--5--5--5-----7--|-------------------------
                                                                        

    (I'm still young...)                                                
G---------------------------------------------------|-------------------
D---------------------------------------------------|-------------------
A---7--7--7--7--7--7--7--7--7--7--7--7--7--7--7--7--|-------------------
E---------------------------------------------------|-------------------
                                                                        

    (and I'd like to stay that way...)                                  
G---------------------------------------------------|-------------------
D---------------------------------------------------|-------------------
A---------------------------------------------------|-------------------
E---9--9--9--9--9--9--9--9--9--9--9--9--9--9--9--9--|-------------------
                                                                        

    (I've gotta voice                                                   
G---------------------------------------------------|-------------------
D---------------------------------------------------|-------------------
A---------------------------------------------------|-------------------
E---7--7--7--7--7--7--7--7--7--7--7--7--7--7--7--7--|-------------------
                                                                        

    and I've gotta lot to say...)                                       
G---------------------------------------------|-------------------------
D---------------------------------------------|-------------------------
A---------------------------------------7-----|-------------------------
E---5--5--5--5--5--5--5--5--5--5--5--5-----7--|-------------------------
                                                                        

    (I've gotta lot to say...)                                          
G------------||----------------------------------------------||---------
D------------||*--------------------------------------------*||---------
A------7-----||*--7--7--7--7--7--7--7--7--------------7-----*||---------
E---5-----7--||---------------------------5--5--5--5-----7---||---------
                                                                        

(Responsibility what's that?)(Responsibility; not quite yet...)       
G---------------------------|--------------------------|----------------
D---------------------------|--------------------------|----------------
A---7--7--7--7--------------|--7--7--7--7--------------|----------------
E---------------5--5--7--7--|--------------5--5--7--7--|----------------
                                                                        

(Responsibility; what's that?)(I don't wanna think about it...)        
G---------------------------|--------------------|----------------------
D---------------------------|--------------------|----------------------
A---7--7--7--7--------------|--------------------|----------------------
E---------------5--5--7--7--|--9--------5--7--7--|----------------------
                                                                        

    (Responsibility; what's that?)                                      
G---------------------------------------------------|-------------------
D---------------------------------------------------|-------------------
A---7--7--7--7--7--7--7--7--------------------------|-------------------
E---------------------------5--5--5--5--7--7--7--7--|-------------------
                                                                        

    (Responsibility; not quite yet...)                                  
G-----------------------------------------------------------------------
D-----------------------------------------------------------------------
A---7--7--7--7--7--7--7--7----------------------------------------------
E---------------------------5--5--5--5--7--7--7--7----------------------
                                                                        

    (Responsibility; what's that?...)                                   
G---|--------------------------------------------------|----------------
D---|--------------------------------------------------|----------------
A---|--7--7--7--7--7--7--7--7--------------------------|----------------
E---|--------------------------5--5--5--5--7--7--7--7--|----------------
                                                                        

    (I don't wanna think about it, we'd be better off without it...)           
G---------------------------------------------------|-------------------
D---------------------------------------------------|-------------------
A---------------------------------------------------|-------------------
E---9--9--9--9--5--5--5--5--7--7--7--7--9--9--9--9--|-------------------
                                                                        

    (I don't wanna think about it)                                      
G---------------------------|-------------------------------------------
D---------------------------|-------------------------------------------
A---------------------------|-------------------------------------------
E---5--5--5--5--7--7--7--7--|--0----------------------------------------
                                                                        



========================================================================
==                       TABLATURE EXPLANATION                        ==
========================================================================

----------                ----------                ----t---
----5h8--- Hammeron       ----(8)--- Ghost          ----6--- Tap
----------                ---------- Note           --------
----5p8--- Pulloff        ----------                --------

----------                ----------                -----p--
----5/8--- Slide Up       -----x---- Dead           -----7-- Pop
----------                ---------- Note           --s-----
----5\8--- Slide Down     ----------                --5----- Slap 

----------                ||------|| Repeat         --------
----5~~~-- Vibrato        ||*----*||                ---5^--- Bend
----------                ||*----*||                --------
----------                ||------||                --------

----------                ----------                --------
-4:------- Time           ----------                --------
-4:------- Signature      ----------                --------
----------                ----------                --------

========================================================================

Comments about this tab

No comments/corrections found. Add your own

Complimentary Christian Ringtones
Dadamobile and CGR have teamed up to bring your favorite Christian artists right to your phone. Sign up today and get 10 complementary ringtones!
Tab Country
Did you know CGR has a sister site w/ country guitar tabs? Well we do! Its called Tab Country. It has a great archive with a lot of country tabs.
Rockin Tabs
Are you looking for a site that has rock guitar tabs? Then Rockintabs.com is the place for you. It is a budding site with many rock guitar tabs. Submit your tab today.
Tab Gallery
Tab Gallery has a compilation of christian, rock, and country tabs all in one place. Come visit us.