Bass Tabs
(THIRD DAY) OR BY ARTIST NAME (JENNIFER KNAPP)
0-9|A|B|C|D|E|F|G|H|I|J|K|L|M|N|O|P|Q|R|S|T|U|V|W|X|Y|Z

Join Us Today!

Don't strum alone...
be a part of the largest online Christian music community. Browse thousands of guitar tabs and chat w/ musicians like yourself.


It's Free!

Earthsuit - Schizophreniac

This tab has been rated a 5.00 out of 5 for accuracy. (1 vote)Sorry, but you must be logged in to rate this tab.
Click here to log-in, or you can click here to register.
(Registration is free)

All songs owned by Integrity and Brentwood-Benson are used by permission. If you make copies of any song on this website, be sure to report your usage to CCLI.
Bass
Song: Schizophreniac
Band: Earthsuit
Cd: Kaleidoscope Superior
Copyright: 2000 Birdwing Music/ASCAP 
Tabbed by: Ryanne (evdm@voyager.net)
 
Tuning- Drop D
Ok, I’m not real sure of this, especially the verse, but just
mess around with it, and you can come up with something pretty close.
 
Intro:
First Part: x4
G|-------------------------------------------------------------------
D|-------------------------------------------------------------------
A|-------------------------------------------------------------------
D|-2-2-2—-2-2-2--1-1-1—-1-1-1----------------------------------------

Second Part x4
G|---------------------------------------------------------------------
D|---2---2---1---1-----------------------------------------------------
A|--2-2-2-2-1-1-1-1----------------------------------------------------
D|-2---2---1---1-------------------------------------------------------

Verse: x4
G|---------------------------------------------------------------------
D|----2--------2------1-----1------------------------------------------
A|-----2-2------2-2----1-1-1-1-----------------------------------------
D|-2-2----2-2-2--2-1-1--1-----1----------------------------------------

Chorus: play () x2 then Second Part of intro, then First part of intro
G|-(-------------------------)-----------------------------------------
D|-(-------------------------)-----------------------------------------
A|-(-------------------------)-----------------------------------------
D|-(-2-2-2-5-5-5-1-1-1-4-4-4-)-----------------------------------------

Verse 
Chorus

Bridge: play () x2 then First Part of intro x2
G|-(-------------------------)-----------------------------------------
D|-(----------2-----------1--)-----------------------------------------
A|-(-------------------------)-----------------------------------------
D|-(-2-2-2-2-2-2-1-1-1-1-1-1-)-----------------------------------------

Part when guitar goes wild: x4
G|---------------------------------------------------------------------
D|----4-4---4-4----1-1----1-1------------------------------------------
A|-----4-----4------1------1-------------------------------------------
D|-4-4---4-4----1-1----1-1---------------------------------------------


Verse 
no bass, then
Chorus

Comments about this tab

No comments/corrections found. Add your own

Complimentary Christian Ringtones
Dadamobile and CGR have teamed up to bring your favorite Christian artists right to your phone. Sign up today and get 10 complementary ringtones!
Tab Country
Did you know CGR has a sister site w/ country guitar tabs? Well we do! Its called Tab Country. It has a great archive with a lot of country tabs.
Rockin Tabs
Are you looking for a site that has rock guitar tabs? Then Rockintabs.com is the place for you. It is a budding site with many rock guitar tabs. Submit your tab today.
Tab Gallery
Tab Gallery has a compilation of christian, rock, and country tabs all in one place. Come visit us.