Bass Tabs
(THIRD DAY) OR BY ARTIST NAME (JENNIFER KNAPP)
0-9|A|B|C|D|E|F|G|H|I|J|K|L|M|N|O|P|Q|R|S|T|U|V|W|X|Y|Z

Join Us Today!

Don't strum alone...
be a part of the largest online Christian music community. Browse thousands of guitar tabs and chat w/ musicians like yourself.


It's Free!

Delirious - Touch

This tab has been rated a 5.00 out of 5 for accuracy. (4 votes)Sorry, but you must be logged in to rate this tab.
Click here to log-in, or you can click here to register.
(Registration is free)

All songs owned by Integrity and Brentwood-Benson are used by permission. If you make copies of any song on this website, be sure to report your usage to CCLI.
Author/Artist: Delirious?
Title: Touch
Album: Roaring Lambs
Copyright 2000 Curious? records
Transcribed by: SethD
Email: sethd@sethd.com

Awesome song by Delirious! There are two versions: the original on
the "DeEPer EP" and the updated version on the Roaring Lambs cd. The
bass riff is different for each version. I took what I liked from each
version and stuck it together.
Email me if you have any comments or suggestions!

Listen to the song for timing. You'll have to listen to the "DeEPer EP"
version for the funky chorus riff, or you can just use the Roaring Lambs
version which is easier but doesn't sound as nice.


Intro (roaring lambs):
A|-7-7-7-5-7---7-5-|-7-7-7-5-7---7-5-|-7-7-7-5-7---7-5-|-7-7-7-5-7---7-5-|
drum beat kicks in
A|-7-7-7-5-7-7-7-5-|-3-3-3-3-0-0-0-0-|-7-7-7-5-7-7-7-5-|-3-3-3-3-0-0-0-0-|

Verses (roaring lambs, but is similar in EP ver):
   I .....                    I want to know you...              I want to
A|-7-7-7-5-7-7-7-5-|-7---7-5-7---7-5-|-7-7-7-5-7-7-7-5-|-7---7-5-7---7-5-|
  show you I'm               Forever yours
A|-7-7-7-5-7-7-7-5-|-7-7-7-5-7-7-7-5-|-7-7-7-5-7-7-7-5-|-7-7-7-5-7-7-7-5-|
  And now...                 another day is dawning             another page is...
A|-7-7-7-5-7-7-7-5-|-3-3-3-3-0-0-0-0-|-7-7-7-5-7-7-7-5-|-3-3-3-3-0-0-0-0-|
  turning here               for everyone to see...
A|-7-7-7-5-7-7-7-5-|-3-3-3-3-0-0-0-0-|-7-7-7-5-7-7-7-5-|-3-3-3-3-0-0-0-0-|
                                                                              

Bridge & beg. of chorus (both versions):
And I'm...on my knees,      'cause I love you...              and when...
A|-4-4-4-4-4-4-4-4-|-2-2-2-2-2-2-2-2-|-0-0-0-0-0-0-0-0-|-0-0-0-0-0-0-5-5-|


Chorus riff (DeEPer EP ver. It's funky, listen to the song for timing):
...you...                     touched my life                   I've been
G|------------------|------------------|------------------|------------------|
D|-----6-9-9-11-9-6-|-----6-9-9-11-9-6-|-----6-9-9-11-9-6-|-----6-9-9-11-9-6-|
A|-7-7--------------|-7-7--------------|-6-6--------------|-6-6--------------|
E|------------------|------------------|------------------|------------------|

 born again                  I am born again...           (1st end)             And when...
G|-------------|-------------|---45545-|-x-(5)-(5)-(5)-(5)-(5)-(7)-(7)-|
D|---699-11-96-|---699-11-96-|---------|-------------------------------|
A|-44----------|-44----------|-33------|-x--3---3---3---3---3---5---5--|
E|-------------|-------------|---------|-------------------------------|
                             (2nd ending before long bridge and at end of song):
                              I am born again/yes I'm torn again...
                                    G|------4-5-5-4-5-|
                                    D|----------------|
                                    A|-3-3------------|
                                    E|----------------|


Chorus riff (Roaring Lambs ver, nice and easy):
...you...                   touched my life
A|-7-7-7-7-7-7-7-7-|-7-7-7-7-7-7-7-7-|-6-6-6-6-6-6-6-6-|-6-6-6-6-6-6-6-6-|
I've been born again             I am born again                   and when...
A|-4-4-4-4-4-4-4-4-|-4-4-4-4-4-4-4-4-|-3-3-3-3-3-3-3-3-|-3-3-3-3-3-3-5-5-|
...you...                   touched my life
A|-7-7-7-7-7-7-7-7-|-7-7-7-7-7-7-7-7-|-6-6-6-6-6-6-6-6-|-6-6-6-6-6-6-6-6-|
I've been born again             I am born again
A|-4-4-4-4-6-6-6-6-|-7-7-7-7-9-9-9-9-|-3-3-3-3-3-3-3-15-|


Long bridge (pretty much the same on both versions):
A|-4-4-4-4-4-4-4-4-|-6-6-6-6-6-6-6-6-|-7-7-7-7-7-7-7-7-|-9-9-9-9-9-9-9-9-|
                                                                 And when...
A|-4-4-4-4-4-4-4-4-|-2-2-2-2-2-2-2-2-|-1-1-1-1-1-1-1-1-|-----------------|
E|-----------------|-----------------|-----------------|-2-2-2-2-2-2-2-2-|


The cool thing about the Roaring Lambs version is the cut out after the long
bridge for the last chorus. Here's the riff for that (the s6 means slide down
to 6th fret without plucking):

...you...touched my life  ...  i am torn again                    I am...
A|-7--------------|-s6--------------|-4-4-4-2-4-4-4-2-|-4-4-4-2-4-4-4-2-|
...born       a --- gain  yeeaaaaaah! (go to normal chorus)
A|-3-3-3-2-3-3-3-2|-3-3-3-2-3-3-5-5-|


Roaring Lambs version ends with verse riff insead of chorus:
A|-7-7-7-5-7-7-7-5-|-3-3-3-3-0-0-0-0-| x 2 - end on an E

Like I said, email me if you think anything is wrong. I've only been
playing the bass for three days now. God bless!

Comments about this tab

No comments/corrections found. Add your own

Complimentary Christian Ringtones
Dadamobile and CGR have teamed up to bring your favorite Christian artists right to your phone. Sign up today and get 10 complementary ringtones!
Tab Country
Did you know CGR has a sister site w/ country guitar tabs? Well we do! Its called Tab Country. It has a great archive with a lot of country tabs.
Rockin Tabs
Are you looking for a site that has rock guitar tabs? Then Rockintabs.com is the place for you. It is a budding site with many rock guitar tabs. Submit your tab today.
Tab Gallery
Tab Gallery has a compilation of christian, rock, and country tabs all in one place. Come visit us.