Bass Tabs
(THIRD DAY) OR BY ARTIST NAME (JENNIFER KNAPP)
0-9|A|B|C|D|E|F|G|H|I|J|K|L|M|N|O|P|Q|R|S|T|U|V|W|X|Y|Z

Join Us Today!

Don't strum alone...
be a part of the largest online Christian music community. Browse thousands of guitar tabs and chat w/ musicians like yourself.


It's Free!

This tab has not yet been rated for accuracy.Sorry, but you must be logged in to rate this tab.
Click here to log-in, or you can click here to register.
(Registration is free)

All songs owned by Integrity and Brentwood-Benson are used by permission. If you make copies of any song on this website, be sure to report your usage to CCLI.
I saw a request for honeylocust bass tabs for “The Hell Song” so
since I was the bass player and composer of the part this is
probably pretty accurate :)


Main Riff:
----9--------|-------------------
------9-10-9-|----9-10-9---7-9-7-
-7-----------|-10--------9-------
-0-----------|-------------------

before 1st Verse:
---------------|------------------
---7-9-----7-9-|---7-9------------
-7------10-----|-7-------7-8-10---
---------------|-------8----------

Verses:
--------------|-------------------
---7-9----7-9-|-------------------
-7-----10-----|---7-8-10-8-7-8----
--------------|-8-----------------


Chorus (fast part):
---9-7-----------|----------|---------------------
-------9-9-7-----|----------|---11--11--11-13-----
-7-----------9-7-|---8-9-11-|-12--12--12------14--
-----------------|-9--------|---------------------


Those are all the main parts I think, with minor variations
of course, but this should be enough to get the idea. E-mail
me at snowbro5@hotmail.com if you have any questions. Thanks!

Comments about this tab

No comments/corrections found. Add your own

Complimentary Christian Ringtones
Dadamobile and CGR have teamed up to bring your favorite Christian artists right to your phone. Sign up today and get 10 complementary ringtones!
Tab Country
Did you know CGR has a sister site w/ country guitar tabs? Well we do! Its called Tab Country. It has a great archive with a lot of country tabs.
Rockin Tabs
Are you looking for a site that has rock guitar tabs? Then Rockintabs.com is the place for you. It is a budding site with many rock guitar tabs. Submit your tab today.
Tab Gallery
Tab Gallery has a compilation of christian, rock, and country tabs all in one place. Come visit us.