Bass Tabs
(THIRD DAY) OR BY ARTIST NAME (JENNIFER KNAPP)
0-9|A|B|C|D|E|F|G|H|I|J|K|L|M|N|O|P|Q|R|S|T|U|V|W|X|Y|Z

Join Us Today!

Don't strum alone...
be a part of the largest online Christian music community. Browse thousands of guitar tabs and chat w/ musicians like yourself.


It's Free!

Newsboys - Say You Need Love

This tab has been rated a 4.50 out of 5 for accuracy. (2 votes)Sorry, but you must be logged in to rate this tab.
Click here to log-in, or you can click here to register.
(Registration is free)

All songs owned by Integrity and Brentwood-Benson are used by permission. If you make copies of any song on this website, be sure to report your usage to CCLI.
Song: “Say You Need Love”
By: Newsboys
copyright 1999 Dawn Treader Music/SESAC
Sparrow Records

^ = stop ringing of note
/ = use ringing of previous note to make sliding effect

Intro:
D|--------------------------------------------1--
A|-------------4-3-4-4-3-4-------------4-3-4-4-4-
E|-2-1-2-2-1-2-------------2-1-2-2-1-2-----------

then play
A|-------------4-3-4-4-3-4-------------------------
E|-2-1-2-2-1-2-------------6-4-6-6-4-6-4-2-4-4-2-4-

Verse:
A|-6-6-6-6~/9-9-9-9-4-4-4-4--
E|--------------------------4^ (play once)

then play
A|-6-6-6-6~/9-9-9-9-4-4-4-4---------
E|--------------------------4-4-4-4- (play 2x’s)

last time play
A|-6-6-6-6~/9-9-9-9-4-4-4-4------
E|--------------------------4^-4^

Chorus is the same as the intro

Bridge:
A|-2-2-2-2---------4-4-4-4---------
E|---------2-2-2-2---------4-4-4-4- (play 2x’s)

then play 
D|-----------------4-
A|-2-2-2-2-1-1-4-4---

no bass on the next part of the bridge

Comments about this tab

volvoguy - 2007-03-15

You mentioned vibrato in there so I thought I'd add a bit of guitar trivia. Derri Daugherty used (and still uses, last time we talked) a Korg A3 and/or A2 for most of the guitar effects in the studio and live with the Choir. In fact when I bought my own, I started a website in hopes of getting him to submit some of his patches (no luck so far. hehe). If you're a die-hard Choir guitar player, get an A3 and visit www.korgaseries.org. Aaron


Add a comment/correction

Complimentary Christian Ringtones
Dadamobile and CGR have teamed up to bring your favorite Christian artists right to your phone. Sign up today and get 10 complementary ringtones!
Tab Country
Did you know CGR has a sister site w/ country guitar tabs? Well we do! Its called Tab Country. It has a great archive with a lot of country tabs.
Rockin Tabs
Are you looking for a site that has rock guitar tabs? Then Rockintabs.com is the place for you. It is a budding site with many rock guitar tabs. Submit your tab today.
Tab Gallery
Tab Gallery has a compilation of christian, rock, and country tabs all in one place. Come visit us.