Bass Tabs
(THIRD DAY) OR BY ARTIST NAME (JENNIFER KNAPP)
0-9|A|B|C|D|E|F|G|H|I|J|K|L|M|N|O|P|Q|R|S|T|U|V|W|X|Y|Z

Join Us Today!

Don't strum alone...
be a part of the largest online Christian music community. Browse thousands of guitar tabs and chat w/ musicians like yourself.


It's Free!

Knapp, Jennifer - Lay It Down

This tab has been rated a 5.00 out of 5 for accuracy. (1 vote)Sorry, but you must be logged in to rate this tab.
Click here to log-in, or you can click here to register.
(Registration is free)

All songs owned by Integrity and Brentwood-Benson are used by permission. If you make copies of any song on this website, be sure to report your usage to CCLI.
Jennifer Knapp
Lay It Down
Bass Tab
Transcribed by: Megan Gandy (GandyM@lrc.edu)

This is my first time tabbing bass guitar, so have fun trying to read it!



(intro) Riff 1:				 2x
G:--------------------------------------
D:--5----------3---------3----3--3--5---
A:------3--h5-----3--h5-----5-----------
E:--------------------------------------

(seeing as i found a rock in my pocket)

Riff 2:
D:--5================================--
		or
G:--0================================--


Riff 3:			    1x
G:-------------------------
D:---------3-----3--3--h5--
A:--3--h5-----5------------
E:-------------------------

(seeing as i found a glitch in my soul)

Riff 4:
D:--5================================--

(make believe won't hide the truth)

Riff 5:			1x
G:-------5----------5--
D:----5----5-----5-----
A:-3----------3--------
E:---------------------

(when judgment falls and it falls on you)

Riff 6:			      1x
G:----------------------------
D:--3--5---------3---------3--
A:--------3--h5-----3--h5-----
E:----------------------------

(bend a knee my friend, bend a knee)

Riff 7:						1x
G:----------------------------------------------
D:----------------------------------------------
A:--0--2--3--2--0--3--0--h2--3--3p2--2p0--0-----
E:-------------------------------------------3--

(Lay It Down say it's all my fault, all my fault
say i believe, i believe
lay it down)

Chorus Riff 1:			     2x
G:--------------------------
D:--1--1-----1--3-----------
A:--------3--------0--1--3--3
E:--------------------------

(this the hour of my healing, of my healing, yeah)

Chorus Riff 2:	
G:--------------------------------------------
D:--1--1-----1--3--------------1--1-----1--5--
A:--------3--------0--1--3--3--------3--------
E:--------------------------------------------

G:-----------------------------------------
D:---(5)---------3---------3-----3--3--h5--
A:--------3--h5-----3--h5-----5------------
E:-----------------------------------------


Repeat Riff 1 1x

(pride can break a man right down from iron
twist him 'round 'round and tatter up a soul)
Repeat Riff 1 4x

(handprint of God on the small of my back)
Repeat Riff 5 1x

(my second chance, my second chance)
Repeat Riff 6 1x

(i'll bend a knee my friend, i'll bend a knee)
Repeat Riff 7 1x

(Lay It Down say it's all my fault, all my fault
say i believe, i believe
lay it down)
Repeat Chorus Riff 1 2x

(this the hour of my healing, of my healing, yeah)
Repeat Chorus Riff 2 1x


Riff 1 2x


(my heart, my heart redeemed)
Riff 8:
G:---------------------------------------------------
D:--1----1-1----3----3-3----1----1-1----3------------
A:----------------------------------------0-1-3--3---
E:---------------------------------------------------


(if it pleases You Love      if it pleases You Love)
Riff 9:
G:---------------------------------------------------
D:--1----1-1----1----1-1----3----3-3----3----3-3-----
A:---------------------------------------------------
E:---------------------------------------------------


(if it pleases You Love		yeah)
Riff 10:
G:-----------------------------------------12--------
D:--1----1-1----1----1-1----3----7--8--10------------
A:---------------------------------------------------
E:---------------------------------------------------

G:-----------10-----------10------10--10--h12--------
D:--10--h12------10--h12------12---------------------
A:---------------------------------------------------
E:---------------------------------------------------

G:--12/0---------------------------------------------
D:---------0=========5=========0==============-------
A:---------------------------------------------------
E:---------------------------------------------------


(Lay It Down say it's all my fault, all my fault
say i believe, i believe
lay it down)
Chorus Riff 1 2x

(this the hour of my healing, of my healing, yeah)
Chorus Riff 2 1x

Riff 11:
G:----------------------------------------------------------
D:--5---------3-3-p0-3-3-p0-3----5---------3-3-p0-3-3-p0-3--
A:-------3-h5-------------------------3-h5------------------
E:----------------------------------------------------------

(Lay it Down, lay it down...)
Riff 12:		   2x
G:------------------------
D:------------------------
A:------------------------
E:--3-3----3---3---3---1--

Riff 13:
G:--------------------------------------------
D:--------------------------------------------
A:--------------------------------10----------
E:--3-3----3---3----3----7--8--10-------------


Riff 14:			    3x
G:--------10-------10----10--10-12--
D:--10-12---10-12-----12------------
A:----------------------------------
E:----------------------------------

Riff 15:
G:--------------
D:--------------
A:--2--3--5-----
E:-----------3--


THE END

Comments about this tab

jamforchrist123 - 2005-02-09

This Doesn't Sound Right. Try The Other Dudes Version


shadow111231 - 2007-05-23

I CAN'T figgure out the rest.
I would like the whole thing please.


rkfan7 - 2007-05-27

Hmmm... I think it's more like this:

D-7-7-7-5-5-7-9-5
A-5-5-5-5-5-5-5-5
E----------------


Add a comment/correction

Complimentary Christian Ringtones
Dadamobile and CGR have teamed up to bring your favorite Christian artists right to your phone. Sign up today and get 10 complementary ringtones!
Tab Country
Did you know CGR has a sister site w/ country guitar tabs? Well we do! Its called Tab Country. It has a great archive with a lot of country tabs.
Rockin Tabs
Are you looking for a site that has rock guitar tabs? Then Rockintabs.com is the place for you. It is a budding site with many rock guitar tabs. Submit your tab today.
Tab Gallery
Tab Gallery has a compilation of christian, rock, and country tabs all in one place. Come visit us.