Bass Tabs
(THIRD DAY) OR BY ARTIST NAME (JENNIFER KNAPP)
0-9|A|B|C|D|E|F|G|H|I|J|K|L|M|N|O|P|Q|R|S|T|U|V|W|X|Y|Z

Join Us Today!

Don't strum alone...
be a part of the largest online Christian music community. Browse thousands of guitar tabs and chat w/ musicians like yourself.


It's Free!

Supertones, The - Lift Me Up

This tab has been rated a 3.50 out of 5 for accuracy. (2 votes)Sorry, but you must be logged in to rate this tab.
Click here to log-in, or you can click here to register.
(Registration is free)

All songs owned by Integrity and Brentwood-Benson are used by permission. If you make copies of any song on this website, be sure to report your usage to CCLI.
BASS
Song: Lift Me Up
Band: Supertones
Cd: Loud and Clear
Copyright: 2000 Supertone Songs (SESAC), We Own Your Songs
Tabbed by: Ryanne (evdm@voyager.net)

This isn't one of my favorites on the cd, but its got awesome bass.

Bass comes in at 0:30
G|---------------------------------------------------------------7-----
D|-------------------------------------9-9--9-------------7-7--7---777-
A|--7-7--7---7-7-----9-9--9---9-9--8-7--------7--7-9-7--5-------------5
E|5--------5-----5-7--------7------------------------------------------

X2
G|---------------------------------------------------------------------
D|--------------------------9-----------9-9--9-------------7-7--7---7-7
A|--7-7--7---7-7-----9-9--9---9-9-9-8-7--------7--7-9-7--5--------5----
E|5--------5-----5-7---------------------------------------------------

G|----|----------------------------------------------------------------
D|7---|----------------------------------------------7-7--7-----7-7-7--
A|--5-|-----5-7------5-7-----5-7---------4---------5--------5-5-------5
E|----|-5-------5--------5-------5--5-5-5-5-2-0-5----------------------

G|---------------------------------------------------------------------
D|---------------------------------------------------------------------
A|---7-7--7---7-7---5-5/7-7/9-9p7--7-5-5----7-7--7---------------------
E|-5--------5-----5----------------------5---------5--5-5-3-5----------

No Bass until 2:15
G|-----------------------------------------------------------------7---
D|--------------------------9------------9-9--9-------------7-7--7---7-
A|--7-7--7---7-7-----9-9--9---9-9-9-8--7--------7--7-9-7--5------------
E|5--------5-----5-7---------------------------------------------------

G|---------------------------------------------------------------------
D|7-7------------------------------9-----------------------------7-7---
A|----5---7-7--7---7-7------9-9--9---9-9-9-8--7--7-----------5-5-------
E|------5--------5-----5--7-----------------------7--0-0-2-4-----------

G|---------------------------------------------------------------------
D|------------------------------7-7--7---------------------------7-7-7-
A|5-5h6h7----7-7--7---7-7-7---5--------5---5-6--7--7-----------5-------
E|---------5--------5-------5------------5----------7--0-0-2-4---------

G|---------------------------------------------------------------------
D|-----------------------------7-7--7---------------------------------7
A|5-5-5h7p5---7-7--7---7-7---5--------5---5-6-7--7-----------------5-7-
E|----------5--------5-----5------------5---------7--0-0-2-4--5--5-----

G|---------------------------------------------------------------------
D|--7-7--7---7-7-------------------------------------------------------
A|5--------5-----5---7-7--7---7-7-7---5-5/7-7/9-9/7--7-5-5---7-7--7----
E|-----------------5--------5-------5----------------------5--------5--

G|---------------------------------------------------------------------
D|--------7-7--7--------------------------7-7--7-----------------------
A|7-7---5--------5---5-6-7--7-----------5--------5-5h7p5----7-7--7---7-
E|----5------------5---------7--0-0-2-4-------------------5--------5---

G|---------------------------------------------------------------------
D|--------7-7--7----------------------------7-7--7----7-(slide down)---
A|7-7---5--------5----5-6--7-7------------5----------------------------
E|----5-------------5----------7--0-0-2-4------------------------------

G|---------------------------------------------------------------------
D|---------------------7-7--7----------------------------------7-7-7---
A|--7-7--7---7-7-7---5--------5--5-5-5-7-7----7-7--7---7-7---5---------
E|5--------5-------5------------------------5--------5-----5-----------

G|---------------------------------------------------------------------
D|--------5----------------------7-7--7----------5---------------------
A|5-5-5h7-----7-7--7---7-7-7---5---------5-5-5-7---7-5-4----7-7-7-7-7--
E|----------5--------5-------5----------------------------5------------

G|---------------------------------------------------------------------
D|-----------7-7--7---------7------------------------------------------
A|-----7---5--------5-5-5-5---5-5--------------------------------------
E|-5-5---5-------------------------------------------------------------

Then you just pretty much keep playing this, while it fades. Let me know
if there are any mistakes.

Comments about this tab

No comments/corrections found. Add your own

Complimentary Christian Ringtones
Dadamobile and CGR have teamed up to bring your favorite Christian artists right to your phone. Sign up today and get 10 complementary ringtones!
Tab Country
Did you know CGR has a sister site w/ country guitar tabs? Well we do! Its called Tab Country. It has a great archive with a lot of country tabs.
Rockin Tabs
Are you looking for a site that has rock guitar tabs? Then Rockintabs.com is the place for you. It is a budding site with many rock guitar tabs. Submit your tab today.
Tab Gallery
Tab Gallery has a compilation of christian, rock, and country tabs all in one place. Come visit us.