Bass Tabs
(THIRD DAY) OR BY ARTIST NAME (JENNIFER KNAPP)
0-9|A|B|C|D|E|F|G|H|I|J|K|L|M|N|O|P|Q|R|S|T|U|V|W|X|Y|Z

Join Us Today!

Don't strum alone...
be a part of the largest online Christian music community. Browse thousands of guitar tabs and chat w/ musicians like yourself.


It's Free!

This tab has been rated a 2.00 out of 5 for accuracy. (1 vote)Sorry, but you must be logged in to rate this tab.
Click here to log-in, or you can click here to register.
(Registration is free)

All songs owned by Integrity and Brentwood-Benson are used by permission. If you make copies of any song on this website, be sure to report your usage to CCLI.
#----------------------------------PLEASE NOTE--------------------------------#
#This file is the author's own work and represents their interpretation of the#
#song. You may only use this file for private study, scholarship, or research.#
#-----------------------------------------------------------------------------#
#-- File created with Instab - http://www.pconline.com/~smcarey/instab.html --#
#-----------------------------------------------------------------------------#

Author/Artist: Geoff Moore and the Distance
Title: Today
Album: Greatist Hits
Transcribed by: Crimp
Email: crimp@irvineonline.net

Standard Tuning

------------------------------------------------------------------------------
------------------------------------------------------------------------------
------------------------------------------------------------------------------
------------------------------------------------------------------------------
-----------0-0---0---0--------------------------------------------------------
-12/--10/------3---3---3------------------------------------------------------
 Intro:Repeat 4 times                                                         

------------------------------------------------------------------------------
------------------------------------------------------------------------------
------------------------------------------------------------------------------
------------------------------------------------------------------------------
------------3----------0------------------------------------------------------
-0----------------------------------------------------------------------------
 Verse:"90 days the same as cash" etc repeats twice then                      

------------------------------------------------------------------------------
------------------------------------------------------------------------------
------------------------------------------------------------------------------
---------------------------0--------------------------------------------------
--2---2---2-1-0--------------------------0-----------2---2---2-1-0------------
----------------3--------------------------------------------------3----------
 this                                                                         

------------------------------------------------------------------------------
------------------------------------------------------------------------------
------------------------------------------------------------------------------
--0---------------------------------------------------------------------------
-------------0----------------------------------------------------------------
--------------------------12\-------------------------------------------------
                                                                              

------------------------------------------------------------------------------
------------------------------------------------------------------------------
------------------------------------------------------------------------------
------------------------------------------------------------------------------
-------3-3-3-0---0-0-0--------------------------------------------------------
-0--0------------------3---3--------------------------------------------------
 Chorus:"This is the day, this is the day" etc. repeats twice then            

------------------------------------------------------------------------------
------------------------------------------------------------------------------
------------------------------------------------------------------------------
------------------------------------------------------------------------------
-0-------0-------0------------------------------------------------------------
---3-------3------------------------------------------------------------------
 this              then a pause then back into the verse.                     

------------------------------------------------------------------------------
------------------------------------------------------------------------------
------------------------------------------------------------------------------
------------------------------------------------------------------------------
------3-3-3-0---0-0-0---------------------------------------------------------
-0--0-----------------3---3---------------------------------------------------
 2nd Chorus:                repeats 4 times then                              

------------------------------------------------------------------------------
------------------------------------------------------------------------------
------------------------------------------------------------------------------
------------------------------------------------------------------------------
-0/16----14----16----14-------0-0---0-----------------------------------------
----------------------------3-----3---3-0-------------------------------------
 this                                    let ring out.                        

------------------------------------------------------------------------------
------------------------------------------------------------------------------
------------------------------------------------------------------------------
------------------------------------------------------------------------------
-------0--1-0-----0-1-0---1---------------------------------------------------
-0-0-3----------3-------3-----------------------------------------------------
 This is played over the guitar solo til the guitar goes back into Chorus     

------------------------------------------------------------------------------
------------------------------------------------------------------------------
------------------------------------------------------------------------------
------------------------------------------------------------------------------
----------------------3-2-3-2-3-------------------------3-2-3-2-3-------------
-0-0-5-3-5-3-5----1-1--------------0-0-5-3-5-3-5----1-1--------------0-0-5-3--
 Chorus repeats 4 times then this for the ending                              

------------------------------------------------------------------------------
------------------------------------------------------------------------------
------------------------------------------------------------------------------
------------------------------------------------------------------------------
--------------------------------------------5-5-5-3-5-3-5---------------------
-5-3-5----1-1-3-2-3-2-3----0-0-5-3-5-3-5---------------------0----------------
                                                               Let ring.

Comments about this tab

No comments/corrections found. Add your own

Complimentary Christian Ringtones
Dadamobile and CGR have teamed up to bring your favorite Christian artists right to your phone. Sign up today and get 10 complementary ringtones!
Tab Country
Did you know CGR has a sister site w/ country guitar tabs? Well we do! Its called Tab Country. It has a great archive with a lot of country tabs.
Rockin Tabs
Are you looking for a site that has rock guitar tabs? Then Rockintabs.com is the place for you. It is a budding site with many rock guitar tabs. Submit your tab today.
Tab Gallery
Tab Gallery has a compilation of christian, rock, and country tabs all in one place. Come visit us.