Bass Tabs
(THIRD DAY) OR BY ARTIST NAME (JENNIFER KNAPP)
0-9|A|B|C|D|E|F|G|H|I|J|K|L|M|N|O|P|Q|R|S|T|U|V|W|X|Y|Z

Join Us Today!

Don't strum alone...
be a part of the largest online Christian music community. Browse thousands of guitar tabs and chat w/ musicians like yourself.


It's Free!

Audio Adrenaline - Hands and Feet

This tab has been rated a 3.00 out of 5 for accuracy. (1 vote)Sorry, but you must be logged in to rate this tab.
Click here to log-in, or you can click here to register.
(Registration is free)

All songs owned by Integrity and Brentwood-Benson are used by permission. If you make copies of any song on this website, be sure to report your usage to CCLI.
Song: Hands and Feet
Band: Audio Adrenaline
Cd: Underdog
Copyright: 1999 Up in the Mix Music
Tabbed by: Ryanne (evdm@voyager.net)


I think this should be pretty close. If you find any
problems or anything let me know.

Intro\Chorus          for intro add
G|-------------------------------------
D|-0-------------------0-----0---------
A|---0-------0------------0------------
E|-----0-3-0---------------------------

Pre-chorus
G|-------------------
D|---0-----0---------
A|------0------------
E|-------------------

Chorus:
Chorus riff x2 then
G|-------------------------------------
D|-----0-------------------------------
A|---0---0----0------------------------
E|-0------3-0--------------------------

Verse (1)   (2) 
G|--------|-----------
D|--------|-----------
A|-2------|-2---4-5---
E|--0-2-3-|---------3-
Repeat 1

Pre-chorus
Chorus

Bridge
G|--------------------------------------
D|--------------------------------------
A|-0-------0----------------------------
E|---3-4-3---3-4-3----------------------

Chorus riff x2

End
G|--------------------------------------
D|-0-0-00-00-0--------------------------
A|-------------0-0-00-00-0--------------
E|-------------------------0-0-00-00-0--

G|-------------
D|-------------
A|-------------
E|-3-3-33-33-3-

Comments about this tab

lockespeaker - 2005-07-31

Ok for the most part its a really good tab but instead of Csus2 jus use C2 and...the brigde is the part that needs the most correction and the part that goes "through the day." I have the songbook so i'll try to put some corrections on later


lockespeaker - 2005-10-03

so wut u do is...

Am7
So where do we start
Bm7 G2
to find every part of
F2 C2
what makes this life complete
Am7 Bm7 G2
if we turn our eyes to Jesus, we'll find
F2 C2 Dsus D2 D (pause)
life's true beginning is there at the cross where He died
D2 D
He died
G Gsus G/B
to bring us...



ya...at the end u could just...not play the chords for "to bring us" and just leave it as a pause


KJSol - 2006-04-17

Does anyone have the correct cords to this song?
There is no such cord as Csus1& Gsus1.


SCCdcTFreak - 2007-04-30

I've seen "the walk" video, and this is exactly what he's playing in that video. I'm not so sure it's what he plays on the original recording, but I've performed it in church using these chords, and have played along with the video using these chords -- it sounds great to me. This was one of the very first songs I learned, and this was the transcription that I used.


Add a comment/correction

Complimentary Christian Ringtones
Dadamobile and CGR have teamed up to bring your favorite Christian artists right to your phone. Sign up today and get 10 complementary ringtones!
Tab Country
Did you know CGR has a sister site w/ country guitar tabs? Well we do! Its called Tab Country. It has a great archive with a lot of country tabs.
Rockin Tabs
Are you looking for a site that has rock guitar tabs? Then Rockintabs.com is the place for you. It is a budding site with many rock guitar tabs. Submit your tab today.
Tab Gallery
Tab Gallery has a compilation of christian, rock, and country tabs all in one place. Come visit us.