Bass Tabs
(THIRD DAY) OR BY ARTIST NAME (JENNIFER KNAPP)
0-9|A|B|C|D|E|F|G|H|I|J|K|L|M|N|O|P|Q|R|S|T|U|V|W|X|Y|Z

Join Us Today!

Don't strum alone...
be a part of the largest online Christian music community. Browse thousands of guitar tabs and chat w/ musicians like yourself.


It's Free!

Juliana Theory, The - Into the Dark

This tab has been rated a 3.50 out of 5 for accuracy. (2 votes)Sorry, but you must be logged in to rate this tab.
Click here to log-in, or you can click here to register.
(Registration is free)

All songs owned by Integrity and Brentwood-Benson are used by permission. If you make copies of any song on this website, be sure to report your usage to CCLI.
Song: Into the Dark
Band: Juliana Theory
Cd: Emotion is Dead
Copyright: 2000 No you don't we own them
Tabbed by: Ryanne (evdm@voyager.net)

This song is pretty easy. Listen to the cd to get the rhythm. 

Verse x4
G|---------------------------------------
D|-0-0---0-0---3-3-----------------------
A|-------------------1-1---1-1---3-3-----
E|---------------------------------------

Chorus x4
G|---------------------------------------
D|-------3-3-----0-0-0-------------------
A|-1-1-1-----3-3-------1-----------------
E|---------------------------------------

Verse x4
Chorus x4

Bridge x2                play 1st part again 2nd time end on this
G|-----------------------|-------|--------
D|----------------0-0-0--|-3-3-3-|-----0--
A|-1-1-1---3-3-3---------|-------|--3----0
E|-----------------------|-------|--------

Bridge Again x4
Chorus until end

Comments about this tab

No comments/corrections found. Add your own

Complimentary Christian Ringtones
Dadamobile and CGR have teamed up to bring your favorite Christian artists right to your phone. Sign up today and get 10 complementary ringtones!
Tab Country
Did you know CGR has a sister site w/ country guitar tabs? Well we do! Its called Tab Country. It has a great archive with a lot of country tabs.
Rockin Tabs
Are you looking for a site that has rock guitar tabs? Then Rockintabs.com is the place for you. It is a budding site with many rock guitar tabs. Submit your tab today.
Tab Gallery
Tab Gallery has a compilation of christian, rock, and country tabs all in one place. Come visit us.