Bass Tabs
(THIRD DAY) OR BY ARTIST NAME (JENNIFER KNAPP)
0-9|A|B|C|D|E|F|G|H|I|J|K|L|M|N|O|P|Q|R|S|T|U|V|W|X|Y|Z

Join Us Today!

Don't strum alone...
be a part of the largest online Christian music community. Browse thousands of guitar tabs and chat w/ musicians like yourself.


It's Free!

Mullins, Rich - Step By Step

This tab has been rated a 2.50 out of 5 for accuracy. (2 votes)Sorry, but you must be logged in to rate this tab.
Click here to log-in, or you can click here to register.
(Registration is free)

All songs owned by Integrity and Brentwood-Benson are used by permission. If you make copies of any song on this website, be sure to report your usage to CCLI.
Step By Step
Composed by: Rich Mullins
Tabbed by: Tom Johnston (bassman@visi.com)

-key of G

VERSE 

Oh God you are my God,      and I will ever praise you.     (2x)  
G------------------------------------------------------
D------------5---5--4---4-2----------------------------
A--------5-----------------5-----3-3-----5----5--------
E----3------------------------5----------------------3-

I will seek you in the morning and I will learn to walk in your wa—ys  
G----------------------------------------------------------------------
D----------------------------------------------------------------------
A--------7--------------5------------------3-------------------------5-
E----------------------------------------------------------------5-----

And step by   step you’ll lead me,      and I will ever praise you
G-------------------------------------------------------------------
D---------------5----5------4-------4-2-----------------------------
A-5-----------5-------------------------5-----3-3----5----5---------
E------3----------------------------------5----------------------3--


Feedback appreciated!

Comments about this tab

markeb67 - 2005-10-02

In the second verse the lyrics are : So when you feel the spirit moving, pointing prodding and be-hooving. There is no time to be losing let us pray. I may have mispelled but you get the picture. Be hooving means like getting a kick in the rump to get you motivated I think.


smileynumber13 - 2005-11-15

i dunno if this will help but in the music video he has a capo on through the song, though i didn't catch what fret it was...


smileynumber13 - 2005-11-15

ack sorry i didn't read it right my mistake. i'm dumb haha.


mikeinwin - 2006-11-29

Behoove
v., -hooved, -hoov·ing, -hooves.
v.tr.
To be necessary or proper for: It behooves you at least to try.
v.intr.
To be necessary or proper.


mikeinwin - 2006-11-29

C Em D
Since we have this moment here at heavens door

I think this should be
C Em D Em
Since we have this moment here at heavens door


ofui24 - 2006-12-31

Its actually easier to play it in regular tuning, Capo 3.

INTRO:
e-------------------------------------------
b-------------------------------------------
g-------0-------------------0---------------
d---------------------0-----------------0--- REPEAT
a---x-x-x-x-x---2-3-2---x-x-x-x-x---2-3-----
d---3-33--33-3-----------3-33--3--3----------


Also, some corrections...

At the bridge, the chords are:


Bb Csus2 Am
Let us approach the throne of grace with confidence

** Gm Am Bbsus2 D Dbsus2 Csus2
As our prayers draw us near to the one who knows our need

Dsus2 Db Dsus2 Db Dsus2 (Slide down)
Before we ev - en call his name


Gm Am Bb D Db C D Db D Db D **
e--x------x-----x------x------x-----x-----------x----x----x----x---------
b--x------x-----x------x------x-----x------x----x----x----x----x---------
g--x------x-----x------x------x-----x------x----x----x----x----x---------
d--5------7-----8------15-----16----13-----15-/-16--15-/-16--15-------
a--5------7-----8------15-----16----13-----15-/-16--15-/-16--15-------
d--3------5-----6------13-----14----11-----13-/-14--13-/-14--13-------

**(Slide down to first position C)


Thats really all I had... Other than that, good tab.


Add a comment/correction

Complimentary Christian Ringtones
Dadamobile and CGR have teamed up to bring your favorite Christian artists right to your phone. Sign up today and get 10 complementary ringtones!
Tab Country
Did you know CGR has a sister site w/ country guitar tabs? Well we do! Its called Tab Country. It has a great archive with a lot of country tabs.
Rockin Tabs
Are you looking for a site that has rock guitar tabs? Then Rockintabs.com is the place for you. It is a budding site with many rock guitar tabs. Submit your tab today.
Tab Gallery
Tab Gallery has a compilation of christian, rock, and country tabs all in one place. Come visit us.