Bass Tabs
(THIRD DAY) OR BY ARTIST NAME (JENNIFER KNAPP)
0-9|A|B|C|D|E|F|G|H|I|J|K|L|M|N|O|P|Q|R|S|T|U|V|W|X|Y|Z

Join Us Today!

Don't strum alone...
be a part of the largest online Christian music community. Browse thousands of guitar tabs and chat w/ musicians like yourself.


It's Free!

This tab has been rated a 4.00 out of 5 for accuracy. (1 vote)Sorry, but you must be logged in to rate this tab.
Click here to log-in, or you can click here to register.
(Registration is free)

All songs owned by Integrity and Brentwood-Benson are used by permission. If you make copies of any song on this website, be sure to report your usage to CCLI.
The Struggle
Author/Artist: Galactic Cowboys
Album: Machine Fish
Transcribed by: Jed
Email: CokeMan007@usa.net

This song is drop D.
Visit my webpage at http://members.tripod.com/~CokeMan007/index.html

-----------------|-----------------|------------------------------------------
-----------------|-----------------|-12x--------------------------------------
-------5---------|-----------------|------------------------------------------
-0-0-0-------6---|---5-----6---5---|------------------------------------------
 Intro(above)/Intro2(below)                                                   

-----------------|-----------------|------------------------------------------
-----------------|-----------------|-4x---------------------------------------
-------5---------|-----------------|------------------------------------------
-0-----------6---|---5-----6---5---|------------------------------------------
 Intro(8x, 4th and 8th times stop on second Ab)/Verse(below)                  

-----------------|-----------------|--|-----------------|----------------|----
-----------------|-----------------|4x|-----------------|----------------|2x--
-------5---------|-----------------|--|-------3---------|----------------|----
-0-0-0-------6---|---5-----6---5---|--|-0-0-0-------4---|---3-----4---3--|----

-----------------|-----------------|------------------------------------------
-----------------|-----------------|-2x---------------------------------------
-------5---------|-----------------|------------------------------------------
-0-0-0-------6---|---5-----6---5---|------------------------------------------
 Verse(again)/Chorus(below)                                                   

-----------------|-----------------|-----------------|-----------------|------
-----------------|-----------------|-----------------|-----------------|-2x---
-----------------|-----------------|-----------------|-----------------|------
-1-----1-----1---|-----1---1-------|-3-----3-----3---|-----3---3-------|------
 Chorus2(below)

-----------------|-----------------|------------------------------------------
-----------------|-----------------|-2x---------------------------------------
-------5---------|-----------------|------------------------------------------
-0-0-0-------6---|---5-----6---5---|------------------------------------------
 Chorus(3x)/Chorus3(below)

-----------------|-----------------|-----------------|-----------------|------
-----------------|-----------------|-----------------|-----------------|------
-----------------|-----------------|-----------------|-----------------|------
-6-------7---6---|-----6---6-------|-6-8---8-8---8---|-----8-8---------|------
 Intro(4x)/Verse/Chorus/Chorus2/Chorus(3x)/Chorus3(2x)/Intro(12x)/pause/      

-----------------|-----------------|-----------------|-----------------|------
-----------------|-----------------|-----------------|-----------------|------
-----------------|-----------------|-----------------|-----------------|------
-1-----1-----1---|-----1---1-------|-3-----3-----3---|-----3---3-------|------
 Intro(16x)/Intro2/Chorus(3x)/Chorus3(2x)/Middle Section(above and below)     

-----------------|-----------------|-----------------|-----------------|------
-----------------|-----------------|-----------------|-----------------|------
-----------------|-----------------|-----------------|-----------------|------
-6-----6-----6---|-----6---6-------|-8-----8-----8---|-----8---8-------|------

-----------------|-----------------|-----------------|-----------------|------
-----------------|-----------------|-----------------|-----------------|------
-----------------|-----------------|-----------------|-----------------|------
-1-----1-----1---|-----1---1-------|-3-----3-----3---|-----3---3-------|------

-----------------|-----------------|-----------------|-----------------|------
-----------------|-----------------|-----------------|-----------------|------
-----------------|-----------------|-----------------|-----------------|------
-6-----6-----6---|-----6---6-------|-8-----8-----8---|-9---------------|------
 Intro(8x)/Outro(below, not in time)

------------------------------------------------------------------------------
------------------------------------------------------------------------------
------------------------------------------------------------------------------
-1-1-1--1-1-1--3-3-3--3-3-3---6-----------------------------------------------

Comments about this tab

Monkeypunk11 - 2004-12-06

the string letters are backward
e-------------------------------------------------
b-------------------------------------------------
g---------3-------3-3-3---------3------3-3-3------
d-----------------0-1-0-----------------0-1-3----- x4
a---1-11---11-1---------1-11----11-1--------------
E-------------------------------------------------
it should really be this


gsus_freak7 - 2005-04-12

the intro is great!


maestro1982 - 2007-04-25

Good job except the bridge should be:

Gb Ab Fm
Let us appraoch the throne of grace with confidence
Gb Ab Bb Db Cm Eb
As our prayers draw us near to the one who knows our need
F
Before we even call his name

This matches up with the recording.


Add a comment/correction

Complimentary Christian Ringtones
Dadamobile and CGR have teamed up to bring your favorite Christian artists right to your phone. Sign up today and get 10 complementary ringtones!
Tab Country
Did you know CGR has a sister site w/ country guitar tabs? Well we do! Its called Tab Country. It has a great archive with a lot of country tabs.
Rockin Tabs
Are you looking for a site that has rock guitar tabs? Then Rockintabs.com is the place for you. It is a budding site with many rock guitar tabs. Submit your tab today.
Tab Gallery
Tab Gallery has a compilation of christian, rock, and country tabs all in one place. Come visit us.