Bass Tabs
(THIRD DAY) OR BY ARTIST NAME (JENNIFER KNAPP)
0-9|A|B|C|D|E|F|G|H|I|J|K|L|M|N|O|P|Q|R|S|T|U|V|W|X|Y|Z

Join Us Today!

Don't strum alone...
be a part of the largest online Christian music community. Browse thousands of guitar tabs and chat w/ musicians like yourself.


It's Free!

Five Iron Frenzy - Ugly Day

This tab has been rated a 3.50 out of 5 for accuracy. (2 votes)Sorry, but you must be logged in to rate this tab.
Click here to log-in, or you can click here to register.
(Registration is free)

All songs owned by Integrity and Brentwood-Benson are used by permission. If you make copies of any song on this website, be sure to report your usage to CCLI.
Title :  Ugly Day (live version)
Artist:  Five Iron Frenzy
Album :  Proof That The Youth Are Revolting
Tab By:  Tessie Dee (aka skankordie aka SpazzBat)

Here is how I interpreted this one.....

\=slide down

Intro:
G|--------------|----------------------------------
D|--------------|--0--4--0--------0--2--0---------- play
A|--------------|----------2--------------4--2--0--  4x
E|--10\----10\--|--------------3-------------------


Verse1:
G|--------------------------------------------------
D|-----4--7--4-----------------4--7--4--------------
A|--5--------------2--5--2--5--------------4--7--4--
E|--------------3-----------------------5-----------

G|-------------------------------------------------0--4-----
D|-----4--7--4-----------------0--4-----4-4-4-3-2--------2--
A|--5--------------2--5--2--2--------2----------------------
E|--------------3-------------------------------------------

G|-----------------------------------------------------
D|-----------------7--4--------------------0--4--0-----
A|-----4--7--4--5--------5-----2--5--2--2-----------2--
E|--5-----------------------3--------------------------

G|--------------------------------------
D|--------------------------------------
A|-----4--7--4-----2--5--2--------------
E|--5-----------3-----------3--3--5--5--


Chorus1:
G|--------------------------------------------------
D|--------------2--2--------------------------------
A|--5--5--4--4--------------5--5--4--4--2--2--------
E|--------------------5--5--------------------3--5--

G|--------------------------------------------------
D|--------------2--2--------------------------------
A|--5--5--4--4--------------------2--2--------------
E|--------------------5--5--3--3--------2--2--5--5--


Bridge1:
A|-----------------4--5--2--------------5----------- play 3x
E|--5--4--5--6--7-----------3--2--3--5-----2--3--5--  then:

A|-----2--5--2-----4--7--4-6--
E|--3-----------5-------------


Verse2:
G|--------------------------------------------------
D|-----6--9--6-----------------6--9--6--------------
A|--7--------------4--7--4--7--------------6--9--6--
E|--------------5-----------------------7-----------

G|-------------------------------------------------2--6--2--
D|-----6--9--6-----------------2--6-----6-6-6-5-4-----------
A|--7--------------4--7--4--4--------4----------------------
E|--------------5-------------------------------------------

G|--------------------------------------------------
D|-----------------9--6--------------------2--6-----
A|-----6--9--6--7--------7-----4--7--4--4--------4--
E|--7-----------------------5-----------------------

G|--------------------------------------
D|--------------------------------------
A|-----6--9--6-----4--7--4--------------
E|--7-----------5-----------5--5--7--7--


Chorus2:
G|--------------------------------------------------
D|--------------4--4--------------------------------
A|--7--7--6--6--------------7--7--6--6--4--4--------
E|--------------------7--7--------------------5--7--

G|--------------------------------------------------
D|--------------4--4--------------------------------
A|--7--7--6--6--------------------4--4--------------
E|--------------------7--7--5--5--------4--4--7--7--


Bridge2:
A|-----------------6--7--4--------------7----------- play 3x
E|--7--6--7--8--9-----------5--4--5--7-----4--5--7--  then:

A|-----4--7--4-----6--9--6----
E|--5-----------7-------------


Ending:
G|-----------------------------------          -----
D|-----6--------------4--------------   play   -----
A|--7-----7--4-----7-----7--6--4----- 4x then: --7--
E|--------------5-----------------5--          -----


Order of Operations!
Intro
Verse1
Chorus1
Verse1
Chorus1
Bridge1
(now's where the key goes up 2 half steps)
Verse2
Chorus2 (2x)
Bridge2
Ending


Well, I hope this has helped you in your pursuit of... uhm... knowledge...
on.... the bass... or something... if you're confused about this then you can
email me or something and if you want an epal there's yet another reason to
email me, aye?  Of course!  Contact me at SpazzBat@goiwin.com
Yours in Christ,
Skankordie (the tamest rudegrrrl)
Aquacadet #2267 (SpazzBat!)

Comments about this tab

No comments/corrections found. Add your own

Complimentary Christian Ringtones
Dadamobile and CGR have teamed up to bring your favorite Christian artists right to your phone. Sign up today and get 10 complementary ringtones!
Tab Country
Did you know CGR has a sister site w/ country guitar tabs? Well we do! Its called Tab Country. It has a great archive with a lot of country tabs.
Rockin Tabs
Are you looking for a site that has rock guitar tabs? Then Rockintabs.com is the place for you. It is a budding site with many rock guitar tabs. Submit your tab today.
Tab Gallery
Tab Gallery has a compilation of christian, rock, and country tabs all in one place. Come visit us.