Bass Tabs
(THIRD DAY) OR BY ARTIST NAME (JENNIFER KNAPP)
0-9|A|B|C|D|E|F|G|H|I|J|K|L|M|N|O|P|Q|R|S|T|U|V|W|X|Y|Z

Join Us Today!

Don't strum alone...
be a part of the largest online Christian music community. Browse thousands of guitar tabs and chat w/ musicians like yourself.


It's Free!

Five Iron Frenzy - Second Season

This tab has not yet been rated for accuracy.Sorry, but you must be logged in to rate this tab.
Click here to log-in, or you can click here to register.
(Registration is free)

All songs owned by Integrity and Brentwood-Benson are used by permission. If you make copies of any song on this website, be sure to report your usage to CCLI.
Title :  Second Season
Artist:  Five Iron Frenzy
Album :  Our Newest Album Ever!
Copyright 1997 5 Minute Walk Music
Tab By:  Spazzbat (aka skankordie)

My humble interpretation:

\=slide down   and similarly   /=slide up

Verse:
 G|------------------------------------------
 D|------------6--------------0--4--2--0--2--
 A|------4--7-----7\-------2-----------------
 E|--5-5--------------3-3--------------------


PreChorus:
 G|---------------------4---------------------4--
 D|----------4--2--5/6-------------2--2--5/6----- play
 A|--2--4/5----------------0--3/4----------------  2x
 E|----------------------------------------------


Chorus:
 G|----------------------------------------------------------
 D|----------2-----2------------------4-------4-4--2-2------- play
 A|--0--3/4-----4-----4-4--3--2--4/5-----5-5------------4-4--  2x
 E|----------------------------------------------------------

 G|---------------------1----------2-| play this section 2x
 D|----------4-----1/2-----0--3/4----|1st time end w/ 1st ending
 A|--2--4/5-----4--------------------|2nd time end w/ 2nd ending
 E|----------------------------------| (listen to the song, you'll get it)

          1st    G|------1-1--4-4--2--1--   2nd    G|--------
         ending: D|-2-2------------------  ending: D|--2--2--


Bridge:
A|--------5555--0000--4444-- (play
E|--3333--------------------   14x)


Order of Operations:
 Verse 12x                 I hope this isn't too confusing.  It really
 PreChorus                 does make some sense if you listen to the
 Chorus                    song.  I enjoy playing this song... I'm trying
 Verse 8x                  to get to where I can sing AND play at the same
 PreChorus                 time!  If you'd like to talk to me more, I'd
 Chorus                    be very happy to hear from you... or if you have
 Bridge                    the need to criticize... SpazzBat@goiwin.com
 PreChorus                    Yours in Christ,
 Chorus                         Skankordie (the tamest rudegrrl)
 Verse 4x                       aka SpazzBat (Aquacadet #2267)
 End with: E|--5--

Comments about this tab

No comments/corrections found. Add your own

Complimentary Christian Ringtones
Dadamobile and CGR have teamed up to bring your favorite Christian artists right to your phone. Sign up today and get 10 complementary ringtones!
Tab Country
Did you know CGR has a sister site w/ country guitar tabs? Well we do! Its called Tab Country. It has a great archive with a lot of country tabs.
Rockin Tabs
Are you looking for a site that has rock guitar tabs? Then Rockintabs.com is the place for you. It is a budding site with many rock guitar tabs. Submit your tab today.
Tab Gallery
Tab Gallery has a compilation of christian, rock, and country tabs all in one place. Come visit us.