Bass Tabs
(THIRD DAY) OR BY ARTIST NAME (JENNIFER KNAPP)
0-9|A|B|C|D|E|F|G|H|I|J|K|L|M|N|O|P|Q|R|S|T|U|V|W|X|Y|Z

Join Us Today!

Don't strum alone...
be a part of the largest online Christian music community. Browse thousands of guitar tabs and chat w/ musicians like yourself.


It's Free!

This tab has not yet been rated for accuracy.Sorry, but you must be logged in to rate this tab.
Click here to log-in, or you can click here to register.
(Registration is free)

All songs owned by Integrity and Brentwood-Benson are used by permission. If you make copies of any song on this website, be sure to report your usage to CCLI.
Artist: The Waiting
Album:  Unfazed
Song Title: Easy To See
Written by: Brad Olsen, David Lichens, Steve Hindalong
Tabbed by: Josh Blackstone (thebassboy14@juno.com)


Intro:

Guitar plays it's riff once then the bass enters on the slide
G|---------------------------------------------------------|
D|---------------------------------------------------------|
A|-----------3--3-2-2/5-5-5-----3--3-2-0-0-----3-2-2/5-5-5-|
E|----15/3--3---------------3--3-----------3--3------------|


Verse 1:
(Riff 1)
(Stagger the first 3 notes carefully)
G|------------------|
D|------------------|
A|-------3--23h2-0--|
E|-0--3-------------|
(Repeat Riff 1 until...)

(Riff 2)
All together for a glimpse of you...
G|---------------------------------|
D|---------5-4-2-------------------|
A|-3-~-5-----------0--0-3--3-3-5-5-|
E|---------------0-----------------|

Chorus:
We are easy to see, we are all together...
G|-----------------------------------|
D|-----------------------------------|
A|------3--3-2-0-0-------3-2-2/5-5-5-|
E|-3--3-------------3--3-------------|
(Repeat 2x)

Verse 2:
Now if you are through...
(Play Riff 1 6x until...)

Resting in the hollow of your hand..
(Play Riff 2 once.)

Chorus:
We are easy to see, we are all together...
(Repeat 2x)

Bridge:
(Riff 3)
Every one of us here, forever to be changed...
G|---------------------------------------------------|
D|-----8---------------8---------------------6-5-3-1-|
A|-6--6---1--1h3~5-6--6---1--------------------------|
E|-------------------------1-3--1-3-3--3-4--4--------|



(Musical interlude)
Together....
G|----------------------|
D|----------------------|
A|-----3-2h3h2-0--------|
E|-3-3----------3h0h3h0-|

All together for a glimpse of you...

G|---------------------------|
D|--------5-4-2-~-7-7-7-7----|
A|-3-~-5---------------------|
E|---------------------------|

Chorus:
(Repeat 2x then play twice using straight whole notes instead of the
variations.)

Outro:
Riff 1
(Play 3x)



This is kind of a weird song to play at first, but after a few times
through it gets to be a snap to play.  Some of the rhythms were tough to
tab and may not be exactly with the CD, but just listen carefully and
you'll get them.  For the most part, everything seems to be right on the
money.  Enjoy.  For Waiting fans, more tabs to come.  Please feel free to
e-mail me with comments, suggestions or corrections.
-bassboy

Comments about this tab

No comments/corrections found. Add your own

Complimentary Christian Ringtones
Dadamobile and CGR have teamed up to bring your favorite Christian artists right to your phone. Sign up today and get 10 complementary ringtones!
Tab Country
Did you know CGR has a sister site w/ country guitar tabs? Well we do! Its called Tab Country. It has a great archive with a lot of country tabs.
Rockin Tabs
Are you looking for a site that has rock guitar tabs? Then Rockintabs.com is the place for you. It is a budding site with many rock guitar tabs. Submit your tab today.
Tab Gallery
Tab Gallery has a compilation of christian, rock, and country tabs all in one place. Come visit us.