Bass Tabs
(THIRD DAY) OR BY ARTIST NAME (JENNIFER KNAPP)
0-9|A|B|C|D|E|F|G|H|I|J|K|L|M|N|O|P|Q|R|S|T|U|V|W|X|Y|Z

Join Us Today!

Don't strum alone...
be a part of the largest online Christian music community. Browse thousands of guitar tabs and chat w/ musicians like yourself.


It's Free!

This tab has not yet been rated for accuracy.Sorry, but you must be logged in to rate this tab.
Click here to log-in, or you can click here to register.
(Registration is free)

All songs owned by Integrity and Brentwood-Benson are used by permission. If you make copies of any song on this website, be sure to report your usage to CCLI.
song: holly
band: thee spivies
all songs copyright 1997 thee spivies
all songs (c) johnny-come-lately music. ascap

bass tab
---------------------------------------------
---------------------------------------------
--5-5-----3-3-3--5---5-5-----3-3-3--5--------
------3-3----------------3-3-----------------

repeat as necessary

chorus

---------------------------------------------
---------------------------------------------
--5-5-5-5-5-5-5-5-5---5-5-----3-3-3--5-------
--------------------------3-3----------------

---------------------------------------------
---------------------------------------------
--5-5-5-5-5-5-5-5-5--7-7-7-7-7-7-7-7---------
---------------------------------------------

ending
---------------------------------------------
---------------------------------------------
--------5-----------3-----5------------------
--------------3------------------------------

Comments about this tab

jonranhuff - 2011-01-11

These chords, at least what I've gotten so far, are accurate. I just need help with the chords with the / in them. Could someone help me out? It would be greatly appreciated because this is a great song, and I'd love to be able to play it.


Add a comment/correction

Complimentary Christian Ringtones
Dadamobile and CGR have teamed up to bring your favorite Christian artists right to your phone. Sign up today and get 10 complementary ringtones!
Tab Country
Did you know CGR has a sister site w/ country guitar tabs? Well we do! Its called Tab Country. It has a great archive with a lot of country tabs.
Rockin Tabs
Are you looking for a site that has rock guitar tabs? Then Rockintabs.com is the place for you. It is a budding site with many rock guitar tabs. Submit your tab today.
Tab Gallery
Tab Gallery has a compilation of christian, rock, and country tabs all in one place. Come visit us.