Bass Tabs
(THIRD DAY) OR BY ARTIST NAME (JENNIFER KNAPP)
0-9|A|B|C|D|E|F|G|H|I|J|K|L|M|N|O|P|Q|R|S|T|U|V|W|X|Y|Z

Join Us Today!

Don't strum alone...
be a part of the largest online Christian music community. Browse thousands of guitar tabs and chat w/ musicians like yourself.


It's Free!

Switchfoot - Might Have Ben Hur

This tab has been rated a 4.50 out of 5 for accuracy. (2 votes)Sorry, but you must be logged in to rate this tab.
Click here to log-in, or you can click here to register.
(Registration is free)

All songs owned by Integrity and Brentwood-Benson are used by permission. If you make copies of any song on this website, be sure to report your usage to CCLI.
Song: Might Have Ben Hur
Group: SWITCHFOOT           
Copyright:(c) 1997 Meadowgreen Music/Sugar Pete Songs/ASCAP
Transcribed by: EVAN(freaker99@hotmail.com)


Here it is!

intro
  
1---------------------------------------------------------------------
2---------------------------------------------------------------------
3-------7-------7-------7-------7-------------------------------------
4---5-------4-------5-------4-----------------------------------------
 
verse 1 & 2     
  
1---------------------------------------------------------------------
2---------------------------------------------------------------------
3-------7-------7-------------5555-7777-------------------------------
4---5-------4-------2222-0000-----------------------------------------

1---------------------------------------------------------------------
2---------------------------------------------------------------------
3-------7-------7-------------55555555-77777777-55555555-8------------
4---5-------4-------2222-0000-----------------------------------------
      
     chorus
1---------------------------------------------------------------------
2-------6-----------------0-------------------------------------------
3---0-----0---0--4--7---0----9---7--8888-7777-------------------------
4---------------------4--------5--------------------------------------

1-------------------------------------------------------------7-6-----
2-------6-----------------0-----------------------------7---9---------
3---0-----0---0--4--7---0----9---7--8888-7777-------------7-----------
4---------------------4--------5--------------1111-3333---------------
           
Chorus 2 (the exact same except:)      
  
1-------------------------------------------------------------7-6-----
2-------------------------------------------------------7---9---------
3---8888-7777-|------------------|------|---------|-------7-----------
4-------------|1111-3333-55555555|------|1111-3333|-------------------
              |repeat this twice | then |  (3x)   | then

that's it. it should be pretty close but this is my first song i've ever 
tabbed before so mail me if there are any corrections or mistakes. 
><>Evan<><

Comments about this tab

tabmngr - 2006-02-23

Hey, i haven't heard this song for about ten years, i was able to look at the chords and play. NICE JOB! there are a couple chords i can't get cuase i don't hage the song to listen to, but other than that, i can play even without them. It's the "run to F" and G-F at the end of a line that i don't bother since i don't the song....GREAT JOB!


Add a comment/correction

Complimentary Christian Ringtones
Dadamobile and CGR have teamed up to bring your favorite Christian artists right to your phone. Sign up today and get 10 complementary ringtones!
Tab Country
Did you know CGR has a sister site w/ country guitar tabs? Well we do! Its called Tab Country. It has a great archive with a lot of country tabs.
Rockin Tabs
Are you looking for a site that has rock guitar tabs? Then Rockintabs.com is the place for you. It is a budding site with many rock guitar tabs. Submit your tab today.
Tab Gallery
Tab Gallery has a compilation of christian, rock, and country tabs all in one place. Come visit us.