Bass Tabs
(THIRD DAY) OR BY ARTIST NAME (JENNIFER KNAPP)
0-9|A|B|C|D|E|F|G|H|I|J|K|L|M|N|O|P|Q|R|S|T|U|V|W|X|Y|Z

Join Us Today!

Don't strum alone...
be a part of the largest online Christian music community. Browse thousands of guitar tabs and chat w/ musicians like yourself.


It's Free!

Supertones, The - Resolution

This tab has been rated a 4.00 out of 5 for accuracy. (2 votes)Sorry, but you must be logged in to rate this tab.
Click here to log-in, or you can click here to register.
(Registration is free)

All songs owned by Integrity and Brentwood-Benson are used by permission. If you make copies of any song on this website, be sure to report your usage to CCLI.
Title: Resolution
Artist:  The Orange County Supertones
Album:  Supertones Strike Back
Copyright: 1997 BEC recordings
Tabbed By:  Bryan Cool (bcool@primary.net)

Intro:
G------------------------------------------0-------0-------------------
D-------0-------0-------13431--13431--0--24-42-0024-42-2-0-------------
A--0--24-42-0024-42--4-------44----------------------------4-2-------0-
E--------------------------------------------------------------0-2-4---

G------------------------------------------0-------0-------------------
D-------0-------0-------13431--13431--0--24-42-0024-42-2-0---0-2-0-----
A--0--24-42-0024-42--4-------44----------------------------4-------4-2-
E----------------------------------------------------------------------

Verse:
G-----------------------------1----------------2-0--------------------
D-----------2-0----------2------4-----0--04-00-----0-2-0--------------
A--0--04-00-----0---4--4---44-----4----------------------4-2-------0--
E------------------------------------------------------------0-2-4----

G-----------------------------1----------------2-0--------------------
D-----------2-0----------2------4-----0--04-00-----0-2-0---0-2-0------
A--0--04-00-----0---4--4---44-----4----------------------4-------4-2--
E---------------------------------------------------------------------

G------------------------2024-2---22-22-------------------------------------
D-0-00-00-00----2-22-22-2------2-2--2--2-4---44-44-0-00-00-00---2-22-22\----
A-----------024-----------------0---------4-4--4--4----------024------------
E------------------------------------------2----------------------------024-

After Verse Riff #1:
G------------
D------------
A-0-----2----
E----2-----0-  (2x)

After Verse Riff #2:
G-------------
D----------0--
A-0-----2-----
E----2-------- (2x)
NOTE: Make up your own rythm for these notes, I could not pick out
a particular one so I just put one note for each rythm.

"Looking Back":
G-------------------------------------------------------------
D-----------------2-2-2-2-2-2-2-2--------------------0-2-0-00-
A-2-2-2-2-2-2-2-2-----------------2-2-2-2-2-2-2-2--2----------
E-------------------------------------------------------------

G------------------------------------------0-------0-------------------
D-------0-------0-------13431--13431--0--24-42-0024-42-2-0-------------
A--0--24-42-0024-42--4-------44----------------------------4-2-------0-
E--------------------------------------------------------------0-2-4---

G------------------------------------------0-------0-----0-4-0-2-0----------
D-------0-------0-------13431--13431--0--24-42-0024-42-2-----------4-2------
A--0--24-42-0024-42--4-------44---------------------------------------------
E---------------------------------------------------------------------------

Verse 2:
G-------------------------------1------------0--2-0--------------------
D-------0----2-0----------23------4-----0--04-00-----0-2-0--------------
A--0--04-00------0---4--4----44-----4----------------------4-2-------0--
E--------------------------------------------------------------0-2-4----

G-------------------------------1------------0--2-0---------------------
D-------0----2-0----------23------4-----0--04-00-----0-2-0---0-2-0------
A--0--04-00------0---4--4---44------4----------------------4-------4-2--
E-----------------------------------------------------------------------

G-----------------------2024-2---22-22-------------------------------------
D-0-00-00-00---2-22-22-2------2-2--2--2-4---44-44-0-00-00-00---2-22-22\----
A-----------024----------------0---------4-4--4--4----------024------------
E-----------------------------------------2----------------------------024-

Then play the 2 After-Verse Riffs
Then play "Looking Back"

"Me and God":
G-----------------------------------------------------------------------
D---------00000000--------------------------------------2-2-2-2-2-2-2-2-
A-44444444--------0000000----------------2-2-2-2-2-2-2-2----------------
E------------------------02-2-2-2-2-2-2-2-------------------------------

Play this along with the guitar:(they are not straight notes like they are
written, they're off beat)
G-------------------------------------
D-------------------------2-2-0-------                                            G----------------- 
A-0-0-0-0---------2-2-2-2-------4-----                                            D-2-2-222-00------
E---------2-2-2-2--------------------- (2x)                                       A------------44---
NOTE: on the second time play the last 4 notes really fast and play it
like this: E-----------------

Then play the 2 After Verse Riffs again, and then play this funky bass
part behind the trombone:

G---202---------2-012---202--------2---202--------2-012----22002255442024--
D---------------------------0033505----------------------------------------
A-0-----0h3h4h5--------0--------------0----0h3h4h5--------0----------------
E--------------------------------------------------------------------------

G---202---------2-012-------202--------2-012-----202-----------2-0-------------
D---------------------------------------------------------3-03-----20----------
A-0-----0h3h4h5-----------0----0h3h4h5---------0-----0345-------------4-3-21-0-
E---------------------------------------------------------------------------4--

Comments about this tab

itsnotaplace - 2006-09-07

One word is not right in the very first line of the song. It says "Oh Lord, take Your plow to my battleground"

it is supposed to be "Oh Lord, take Your plow to my FALLOW GROUND" ... as in ground needing to be plowed.

Battle ground does not make sense.


benno777 - 2007-05-21

In the chorus, there is also a problem. The line beginning with "and the very Word" should be "and the very One".


benno777 - 2007-05-21

In the chorus, there is also a problem. The line beginning with "and the very Word" should be "and the very One".


Add a comment/correction

Complimentary Christian Ringtones
Dadamobile and CGR have teamed up to bring your favorite Christian artists right to your phone. Sign up today and get 10 complementary ringtones!
Tab Country
Did you know CGR has a sister site w/ country guitar tabs? Well we do! Its called Tab Country. It has a great archive with a lot of country tabs.
Rockin Tabs
Are you looking for a site that has rock guitar tabs? Then Rockintabs.com is the place for you. It is a budding site with many rock guitar tabs. Submit your tab today.
Tab Gallery
Tab Gallery has a compilation of christian, rock, and country tabs all in one place. Come visit us.