Bass Tabs
(THIRD DAY) OR BY ARTIST NAME (JENNIFER KNAPP)
0-9|A|B|C|D|E|F|G|H|I|J|K|L|M|N|O|P|Q|R|S|T|U|V|W|X|Y|Z

Join Us Today!

Don't strum alone...
be a part of the largest online Christian music community. Browse thousands of guitar tabs and chat w/ musicians like yourself.


It's Free!

Supertones, The - Old Friend

This tab has been rated a 3.50 out of 5 for accuracy. (2 votes)Sorry, but you must be logged in to rate this tab.
Click here to log-in, or you can click here to register.
(Registration is free)

All songs owned by Integrity and Brentwood-Benson are used by permission. If you make copies of any song on this website, be sure to report your usage to CCLI.
Title: Old Friend
Artist: Supertones
Album: Chase The Sun
Author: Tony Terusa and Darren Mettler
(c) 1999 We Own Your Songs
Tabbed by: Todd Nicholson (crazymescan@hotmail.com)

(I wrote the chord the guitar is playing above the notes)

Intro:
   A               F#              A       G#      F#           (2x)
G|-----------------------------------------------------------------|
D|-----2-2-----2-2---------------------2-2-----2-2-----------------|
A|-0-0-----0-0---------4-4-----4-4-0-0-----0-0---------4-4-----4-4-|
E|-----------------2-2-----2-2---------------------2-2-----2-2-----|
                                                                     
   D               A               E         D         A(Hold a sec.)
G|-----2-2-----2-2-----------------------------------------------|
D|-0-0-----0-0---------2-2-----2-2-2-2-2-2-2-0-0-0-2-5-----2-2-2-|
A|-----------------0-0-----0-0-------------------------0-0-------|  
E|---------------------------------------------------------------|

(Play the same thing along with the guitar chords)

Verse 1:
A      F#        
A  G#  F#    
A      F#            
A  G#  F#        

Chorus:
D      A            
E  D   A        

(During guitar solo after chorus) play this line 2x
   A               F#              A       G#        F#
G|---------------------------------2-2-4-2-1-1-1-2-1-----------------|
D|-----2-2-----2-2-----------------------------------4-4-------------|
A|-0-0-----0-0---------4-4-----4-4-----------------------4-4-----4-4-|
E|-----------------2-2-----2-2-------------------------------2-2-----|

   D               A           E             D         A               
G|-----2-2-----2-2-----------------------------------------------------|
D|-0-0-----0-0---------2-2-----2-2-2-2-2-2-2-0-0-0-2-0-----2-2-----2-2-|
A|-----------------0-0-----0-0-------------------------0-0-----0-0-----|
E|---------------------------------------------------------------------|

Verse 2:
A      F#         
A  G#  F#       
A      F#        
A  G#  F#           

Play Chorus 3x

That's about it. There are a couple filler notes in there that I didn't
tab. I hope I got everything right because I have played it in front of
my church this way.

Comments about this tab

No comments/corrections found. Add your own

Complimentary Christian Ringtones
Dadamobile and CGR have teamed up to bring your favorite Christian artists right to your phone. Sign up today and get 10 complementary ringtones!
Tab Country
Did you know CGR has a sister site w/ country guitar tabs? Well we do! Its called Tab Country. It has a great archive with a lot of country tabs.
Rockin Tabs
Are you looking for a site that has rock guitar tabs? Then Rockintabs.com is the place for you. It is a budding site with many rock guitar tabs. Submit your tab today.
Tab Gallery
Tab Gallery has a compilation of christian, rock, and country tabs all in one place. Come visit us.