Bass Tabs
(THIRD DAY) OR BY ARTIST NAME (JENNIFER KNAPP)
0-9|A|B|C|D|E|F|G|H|I|J|K|L|M|N|O|P|Q|R|S|T|U|V|W|X|Y|Z

Join Us Today!

Don't strum alone...
be a part of the largest online Christian music community. Browse thousands of guitar tabs and chat w/ musicians like yourself.


It's Free!

Supertones, The - Hanani

This tab has been rated a 4.00 out of 5 for accuracy. (1 vote)Sorry, but you must be logged in to rate this tab.
Click here to log-in, or you can click here to register.
(Registration is free)

All songs owned by Integrity and Brentwood-Benson are used by permission. If you make copies of any song on this website, be sure to report your usage to CCLI.
Title: Hanani
Artist:  O.C. Supertones
Album: Chase the Sun
(c)1999 We Own Your Songs (SESAC)
tabbed by Josh Blackstone (froggy_guy_14@hotmail.com)


Intro:
(Guitar comes in first, others follow)

G|---------------|      
D|---------------|  
A|-4-------5-----|  
E|-----2-------5-|  

Verse:
(Play 4x)
G|--------------------------------|
D|-------------4------------------|
A|-4-2-0-----0---4-5-55-0-5h6h7h5-|
E|-------4-2----------------------|

Pre-Chorus:

G|-------------------------------------------------|
D|-------------------------------------------------|
A|-------------------------------------------------|
E|-4444-5555-4444-5555-4444-5555-4444-5-5-7-7-7777-|

Chorus:
(Played 2x)

G|-----------------------------------------------------------------------|
D|-----------------------------------------------------------------------|
A|-----------------7-7-777-7-7-777-9-9-999---------5-5-555---77-5-44-----|
E|-5-5-555-5-5-555-------------------------7-7-777-------------------7-5-|

Interlude before going back into verse:
(Played 2x)

G|---------------------------------|
D|---------------------------------|
A|---------7-7-777-5-5-555---------|
E|-5-5-555-----------------9-9-7-7-|

Verse 2:
Played the same as way as the first time

Pre-Chorus

Chorus

Bridge:
(Played 2x)

G|---------------------------------------------------------------------------|
D|---------------------------------------------------------------------------|
A|------------------7-7-7-7-7-7--7777--5-5-5-5-5-5-5555---------------777777-|
E|-5-5-5-5-5-5-5555--------------------------------------5-5-5-5-5-----------|

Pre-Chorus 2:

G|-----------------------------------------|
D|-----------------------------------------|
A|-----------------------------------------|
E|-4---5---4---5---4---5---4---5-5-7-7-777-|

Chorus
and the Chorus Interlude played as the the outro. 

That's it!  I'm pretty sure song is correct.  Also the way 
Tony staggers the notes may take some getting used to, so play along
with the CD to get the rhythm.  E-mail me with any comments or suggestions
or corrections!  
-josh

Comments about this tab

mwoydavid - 2005-07-11

man i love this song
God bless
mwoydavid


Add a comment/correction

Complimentary Christian Ringtones
Dadamobile and CGR have teamed up to bring your favorite Christian artists right to your phone. Sign up today and get 10 complementary ringtones!
Tab Country
Did you know CGR has a sister site w/ country guitar tabs? Well we do! Its called Tab Country. It has a great archive with a lot of country tabs.
Rockin Tabs
Are you looking for a site that has rock guitar tabs? Then Rockintabs.com is the place for you. It is a budding site with many rock guitar tabs. Submit your tab today.
Tab Gallery
Tab Gallery has a compilation of christian, rock, and country tabs all in one place. Come visit us.