Bass Tabs
(THIRD DAY) OR BY ARTIST NAME (JENNIFER KNAPP)
0-9|A|B|C|D|E|F|G|H|I|J|K|L|M|N|O|P|Q|R|S|T|U|V|W|X|Y|Z

Join Us Today!

Don't strum alone...
be a part of the largest online Christian music community. Browse thousands of guitar tabs and chat w/ musicians like yourself.


It's Free!

Supertones, The - Hallelujah

This tab has not yet been rated for accuracy.Sorry, but you must be logged in to rate this tab.
Click here to log-in, or you can click here to register.
(Registration is free)

All songs owned by Integrity and Brentwood-Benson are used by permission. If you make copies of any song on this website, be sure to report your usage to CCLI.
Title: Hallelujah
Artist: O.C. Supertones
Album: Chase the Sun
(c)1999 We Own Your Songs (SESAC)
tabbed by Josh Blackstone (froggy_guy_14@hotmail.com)


This is the beginning and it repeats 2 times for intro.
G|-------------------------------|      |------------|      |-------------|
D|-------------------------------|      |------------|      |-333333------|
A|1-1-------1-1--------1-1-------| 1st  |1-1-------1-| 2nd  |-------------|
E|----3-1h3-----3-1h3------3-1h3-| Time |----3-1-3---| Time |-------------|

Verse:
(Play 2x)
G|----------------------------------------------------------------------|
D|-----------------1-1-----1-1-----3-3-0---3-3-0-----33-1-0-------------|
A|1-1------1-1--------3-1h3---3-1h3-----3h5------3h5--------3-1-1-------|
E|----3-1h3---3-1h3-----------------------------------------------3-1-3-|

Chorus:
(Play 2x)
G|---------------------------------------------------------------------------|
D|------------------------1-1-----3-3-0---3-3-0---33-1-0---------------------|
A|1-1-----1-1-----1-1--------3-1h3-----3h5-----3h5------3-1-1-----1-1--------|
E|---3-1h3---3-1h3---3-1h3-----------------------------------3-1h3----3-1h3--|

After the chorus, there is a little horn interlude... the bass through
this goes:
G|-----------------------------------------------------------------------|
D|----------------3-3-0---3-3-0---3-3-0-----3-3-0-----33-1-0-------------|
A|1-1-----1-1----------3h5-----3h5------3h5-------3h5--------3-1-1-------|
E|---3-1h3---3-1h3-------------------------------------------------3-1h3-|

Then as the trombone kicks in the bass mimics:
G|----0-1-----0-1-1------------------------------------------------------|
D|-0-3----0-3------1-1-----1-1-----3-3-0----3-3-0-----33-1-0-------------|
A|1------1------------3-1h3---3-1h3-----3h5-------3h5--------3-1-1-------|
E|------------------------------------------------------------------3-1-3|

Verse 2:
Played the same as way as the first time

Chorus

Chorus again but with no guitars

And chorus then comes in again same as before until it reaches the part where it repeats,
"Bound to win...":
(Play 9x)
G|--------|
D|--------|
A|1-1-----|
E|----3-3-|

Outro:

G|----------3----------------3-1h3h1----------3----------------3-1h3h1-----|
D|-----3-3-3-1h3h1------3-3-3-------3----3-3-3-1h3h1------3-3-3--------3---|
A|1--1------------3-1--1--------------1-1-----------3-1--1---------------1-|
E|-------------------------------------------------------------------------|


That's it!  I'm pretty sure this song is about 97% correct.  There are a
few incidental notes here and there that really weren't worth throwing in
and you can figure them out if you play along with the CD to get the rhythm.
E-mail me with any comments or suggestions!

Comments about this tab

No comments/corrections found. Add your own

Complimentary Christian Ringtones
Dadamobile and CGR have teamed up to bring your favorite Christian artists right to your phone. Sign up today and get 10 complementary ringtones!
Tab Country
Did you know CGR has a sister site w/ country guitar tabs? Well we do! Its called Tab Country. It has a great archive with a lot of country tabs.
Rockin Tabs
Are you looking for a site that has rock guitar tabs? Then Rockintabs.com is the place for you. It is a budding site with many rock guitar tabs. Submit your tab today.
Tab Gallery
Tab Gallery has a compilation of christian, rock, and country tabs all in one place. Come visit us.