Bass Tabs
(THIRD DAY) OR BY ARTIST NAME (JENNIFER KNAPP)
0-9|A|B|C|D|E|F|G|H|I|J|K|L|M|N|O|P|Q|R|S|T|U|V|W|X|Y|Z

Join Us Today!

Don't strum alone...
be a part of the largest online Christian music community. Browse thousands of guitar tabs and chat w/ musicians like yourself.


It's Free!

Supertones, The - Grounded

This tab has been rated a 4.50 out of 5 for accuracy. (2 votes)Sorry, but you must be logged in to rate this tab.
Click here to log-in, or you can click here to register.
(Registration is free)

All songs owned by Integrity and Brentwood-Benson are used by permission. If you make copies of any song on this website, be sure to report your usage to CCLI.
Title: Grounded
Artist: Supertones
Album: Chase the Sun
Copyright: 1999, BEC Recordings

Into:

G------------------|---------0-0---------------------|
D------------------|-----2-2-----2-2-0-0-------------|
A-2-2-2-2--2-2-2-2-|---------------------4-4-0-0-2-2-| 4x's
E------------------|-0-0-----------------------------|

G---------|
D---------|
A---2---0-|
E-0---3---|


Verse:

G---------0-0---------------------|
D-----2-2-----2-2-0-0-------------|
A---------------------4-4-0-0-2-2-| 8x's
E-0-0-----------------------------|


Chorus (no words):

G---------------------------------|
D---------------------------------|
A---------3-3-3-3---------0-0-0-0-| 2x's
E-0-0-0-0---------3-3-3-3---------|

Then play the verse again except on the fourth time play:

G---------0-0-----2-2-0-0-4-4-0-0-|
D-----2-2-----2-2-----------------|
A---------------------------------|
E-0-0-----------------------------|


Chorus:

G---------------------------------|
D---------------------------------|
A-----3---------0-0-0-0-----3---5-| 2x's
E-0-0---3-3-3-3---------0-0---3---|


Break:

G-----------------------|
D---2-2-p0-h2---2-5-4-2-|
A-----------------------| 4x's
E-0-----------0---------|


play verse like second time

chorus three times (no words the first time)

play break twice then stop for guitar

play verse like second time

play chorus twice

Any ?'s or comments E-mail me at Jeff1229@Juno.com  This is pretty
close I think.

Comments about this tab

No comments/corrections found. Add your own

Complimentary Christian Ringtones
Dadamobile and CGR have teamed up to bring your favorite Christian artists right to your phone. Sign up today and get 10 complementary ringtones!
Tab Country
Did you know CGR has a sister site w/ country guitar tabs? Well we do! Its called Tab Country. It has a great archive with a lot of country tabs.
Rockin Tabs
Are you looking for a site that has rock guitar tabs? Then Rockintabs.com is the place for you. It is a budding site with many rock guitar tabs. Submit your tab today.
Tab Gallery
Tab Gallery has a compilation of christian, rock, and country tabs all in one place. Come visit us.