Bass Tabs
(THIRD DAY) OR BY ARTIST NAME (JENNIFER KNAPP)
0-9|A|B|C|D|E|F|G|H|I|J|K|L|M|N|O|P|Q|R|S|T|U|V|W|X|Y|Z

Join Us Today!

Don't strum alone...
be a part of the largest online Christian music community. Browse thousands of guitar tabs and chat w/ musicians like yourself.


It's Free!

This tab has not yet been rated for accuracy.Sorry, but you must be logged in to rate this tab.
Click here to log-in, or you can click here to register.
(Registration is free)

All songs owned by Integrity and Brentwood-Benson are used by permission. If you make copies of any song on this website, be sure to report your usage to CCLI.
+------------------------------------------+
\  Artist     :  Squad Five-O               \
/  Song       :  You're The One             /
\  Instrument :  Bass                       \
/  Tabbed by  :  Mike!    /
\___________________________________________\

Intro:
G-|-------------9-7---------|
D-|-------9-7-9-----9-9-7-9-|
A-|-7-7-7-------------------|
E-|-------------------------|

G-|-----------------------------------------------------|
D-|-----------------------------------------------------|
A-|-------------3-3-3-3-3-3---------------5-5-5-5-5-5-3-|
E-|-5-5-5-5-5-5-------------3-3-3-3-3-3/5---------------|

G-|-------------------------------------|
D-|-------------------------------------|
A-|-------------3-3-3-3-3-3-------------|
E-|-5-5-5-5-5-5-------------3-3-3-3-3-3-|

G-|-------------9-7---------|
D-|-------9-7-9-----9-9-7-9-|
A-|-7-7-7-------------------|
E-|-------------------------|

G-|---------------------------------------------|
D-|-----------------------------------------5-7-|
A-|---------------6---6-----------5-5-7-5-7-----|
E-|-5-5/7-5/7-5-8---8---3-3-3/5-3---------------|
I've got a picture of you that I carry in my wallet
You were two years old and full of innocence
G-|-----------------------------------------------|
D-|-----------------------------------5-7/9-7-5-7-|
A-|---------------6---6-----------5-7-------------|
E-|-5-5/7-5/7-5-8---8---3-3-3/5-3-----------------|
Now the picture is old, worn, torn and tattered
But your smile is the same as I've always remembered it
G-|---------------------------------------------|
D-|-----------------------------------------5-7-|
A-|---------------6---6-----------5-5-7-5-7-----|
E-|-5-5/7-5/7-5-8---8---3-3-3/5-3---------------|
So beautiful, so innocent
The same look in your eye that there has always been
G-|-------------------------------|
D-|-------------------------------|
A-|---------------6---6-----------|
E-|-5-5/7-5/7-5-8---8---3-3-3/5-3-|
You were gazing off into the distance with the same look that's
G-|-------------9-7---------|
D-|-------9-7-9-----9-9-7-9-|
A-|-7-7-7-------------------|
E-|-------------------------|
staring at me now

G-|-----------------------------------------------------|
D-|-----------------------------------------------------|
A-|-------------3-3-3-3-3-3---------------5-5-5-5-5-5-3-|
E-|-5-5-5-5-5-5-------------3-3-3-3-3-3/5---------------|
You're the one
You see right through me
You're the one
Past all I've done
G-|-------------------------------------|
D-|-------------------------------------|
A-|-------------3-3-3-3-3-3-------------|
E-|-5-5-5-5-5-5-------------3-3-3-3-3-3-|
You're the one
Into the real me
You're the one
G-|-------------9-7---------|
D-|-------9-7-9-----9-9-7-9-|
A-|-7-7-7-------------------|
E-|-------------------------|
Somehow I knew it all along

G-|---------------------------------------------|
D-|-----------------------------------------5-7-|
A-|---------------6---6-----------5-5-7-5-7-----|
E-|-5-5/7-5/7-5-8---8---3-3-3/5-3---------------|
Now love arrives like a shot in the dark
And years go by like the seconds on a clock
G-|-----------------------------------------------|
D-|-----------------------------------5-7/9-7-5-7-|
A-|---------------6---6-----------5-7-------------|
E-|-5-5/7-5/7-5-8---8---3-3-3/5-3-----------------|
Eighteen years have come and gone so fast
Like sands that are slipping through an hourglass
G-|---------------------------------------------|
D-|-----------------------------------------5-7-|
A-|---------------6---6-----------5-5-7-5-7-----|
E-|-5-5/7-5/7-5-8---8---3-3-3/5-3---------------|
How can I say what words can't say
A million songs could never explain
G-|-------------------------------|
D-|-------------------------------|
A-|---------------6---6-----------|
E-|-5-5/7-5/7-5-8---8---3-3-3/5-3-|
The single point that I'm trying to make
Two become one,
G-|-------------9-7---------|
D-|-------9-7-9-----9-9-7-9-|
A-|-7-7-7-------------------|
E-|-------------------------|
a bond that will never break

G-|-----------------------------------------------------|
D-|-----------------------------------------------------|
A-|-------------3-3-3-3-3-3---------------5-5-5-5-5-5-3-|
E-|-5-5-5-5-5-5-------------3-3-3-3-3-3/5---------------|
You're the one
You see right through me
You're the one
Past all I've done
G-|-------------------------------------|
D-|-------------------------------------|
A-|-------------3-3-3-3-3-3-------------|
E-|-5-5-5-5-5-5-------------3-3-3-3-3-3-|
You're the one
Into the real me
You're the one
G-|-------------9-7---------|
D-|-------9-7-9-----9-9-7-9-|
A-|-7-7-7-------------------|
E-|-------------------------|
Somehow I knew it all along

G-|---|
D-|---|
A-|---|
E-|-5-|

G-|-----------------------------------------------------|
D-|-----------------------------------------------------|
A-|-------------3-3-3-3-3-3---------------5-5-5-5-5-5-3-|
E-|-5-5-5-5-5-5-------------3-3-3-3-3-3/5---------------|

G-|-----------------------------------------------------|
D-|-----------------------------------------------------|
A-|-------------3-3-3-3-3-3---------------7-7-7-7-7-7-5-|
E-|-5-5-5-5-5-5-------------3-3-3-3-3-3/5---------------|

G-|-----------------------------------------------------|
D-|-----------------------------------------------------|
A-|-------------3-3-3-3-3-3---------------5-5-5-5-5-5-3-|
E-|-5-5-5-5-5-5-------------3-3-3-3-3-3/5---------------|

G-|---------------------------------------------------|
D-|---------------------------------------------------|
A-|-------------3-3-3-3-3-3---------------7-7-7-7-7-7-|
E-|-5-5-5-5-5-5-------------3-3-3-3-3-3/5-------------|

G-|-----------------------------------------------------|
D-|-----------------------------------------------------|
A-|-------------3-3-3-3-3-3---------------5-5-5-5-5-5-3-|
E-|-5-5-5-5-5-5-------------3-3-3-3-3-3/5---------------|
In sickness in health
In richer or for for poorer
We'll face this world together
And all the trials before us
G-|-------------------------------------------------------------|
D-|-----------------------------------------------9-9-9-9-7-5-7-|
A-|-------------3-3-3-3-3-3---------------7-7-7-7---------------|
E-|-5-5-5-5-5-5-------------3-3-3-3-3-3/5-----------------------|
With your hand in mine
Your hand in mine

G-|-----------------------------------------------------|
D-|-----------------------------------------------------|
A-|-------------3-3-3-3-3-3---------------5-5-5-5-5-5-3-|
E-|-5-5-5-5-5-5-------------3-3-3-3-3-3/5---------------|
You're the one
You're the one
G-|-------------------------------------|
D-|-------------------------------------|
A-|-------------3-3-3-3-3-3-------------|
E-|-5-5-5-5-5-5-------------3-3-3-3-3-3-|
You're the one
You're the one
G-|-------------9-7---------|
D-|-------9-7-9-----9-9-7-9-|
A-|-7-7-7-------------------|
E-|-------------------------|
Somehow I knew it all along

G-|------------------|
D-|------------------|
A-|------3--3--------|
E-|-5--5------3--3-5-|

Comments about this tab

No comments/corrections found. Add your own

Complimentary Christian Ringtones
Dadamobile and CGR have teamed up to bring your favorite Christian artists right to your phone. Sign up today and get 10 complementary ringtones!
Tab Country
Did you know CGR has a sister site w/ country guitar tabs? Well we do! Its called Tab Country. It has a great archive with a lot of country tabs.
Rockin Tabs
Are you looking for a site that has rock guitar tabs? Then Rockintabs.com is the place for you. It is a budding site with many rock guitar tabs. Submit your tab today.
Tab Gallery
Tab Gallery has a compilation of christian, rock, and country tabs all in one place. Come visit us.