Bass Tabs
(THIRD DAY) OR BY ARTIST NAME (JENNIFER KNAPP)
0-9|A|B|C|D|E|F|G|H|I|J|K|L|M|N|O|P|Q|R|S|T|U|V|W|X|Y|Z

Join Us Today!

Don't strum alone...
be a part of the largest online Christian music community. Browse thousands of guitar tabs and chat w/ musicians like yourself.


It's Free!

This tab has not yet been rated for accuracy.Sorry, but you must be logged in to rate this tab.
Click here to log-in, or you can click here to register.
(Registration is free)

All songs owned by Integrity and Brentwood-Benson are used by permission. If you make copies of any song on this website, be sure to report your usage to CCLI.
+------------------------------------------+
\  Artist     :  Squad Five-O               \
/  Song       :  The Tie That Binds         /
\  Instrument :  Bass                       \
/  Tabbed by  :  Mike!    /
\___________________________________________\

Intro:
G-|-------------------------------------------------------------------|
D-|-----------------------------------5-2-----------------------------|
A-|-8-8-7-5-3-3-3-3-------5-5-5-5---------3-3-3-3-------5-5-5-5-8-7-5-|
E-|-----------------3-3-3---------5-5-------------3-3-3---------------|

G-|---------------------------------------------------------|
D-|---2-5-2-------------------------7-5-----------7-----5---|
A-|-3-------5-3-------5-3-2---5---4-----7-5---------5/7---7-|
E-|-------------5-3-3-------3---5-----------8-5-5-----------|
Lets take the time to look around
At all the things in life and what we really care about
G-|---------------------------------------------------|
D-|---2-5-2-------------------------7-5---------------|
A-|-3-------5-3-------5-3-2---5---4-----7-5-----8-7-5-|
E-|-------------5-3-3-------3---5-----------8-5-------|
In desperate measures and desperate times
What sees you through is who's by your side
G-|---------------------------------------------------------|
D-|---2-5-2-------------------------7-5-----------7-----5---|
A-|-3-------5-3-------5-3-2---5---4-----7-5---------5/7---7-|
E-|-------------5-3-3-------3---5-----------8-5-5-----------|
And in the end, it all comes down
Who are your friends, who's still hanging around
G-|---------------------------------------------------|
D-|---2-5-2-------------------------7-5---------------|
A-|-3-------5-3-------5-3-2---5---4-----7-5-----8-7-5-|
E-|-------------5-3-3-------3---5-----------8-5-------|
What makes your life complete is what you sowe and reap
And the bond of God with friends you've found

G-|---------------------------------------------------|
D-|-------------------------------------7-7-7-5-7-5-7-|
A-|-3-3-3-3-3-3-------------5-5-5-5-5-5---------------|
E-|-------------3-3-3-3-3-3---------------------------|
Few things in life that I have truly found
Worth sacrifice, worth laying my life down
G-|-------------------------------------------|
D-|-------------------------------------------|
A-|-3-3-3-3-3-3-------------5-5-5-5-5-5-8-7-5-|
E-|-------------3-3-3-3-3-3-------------------|
My best friend died for me, and I would die for him
And I die for you my friend

G-|---------------------------------------------------------|
D-|---2-5-2-------------------------7-5-----------7-----5---|
A-|-3-------5-3-------5-3-2---5---4-----7-5---------5/7---7-|
E-|-------------5-3-3-------3---5-----------8-5-5-----------|
A friendship built by God above us
And unity through his spirit that dwells within us
G-|---------------------------------------------------|
D-|---2-5-2-------------------------7-5---------------|
A-|-3-------5-3-------5-3-2---5---4-----7-5-----8-7-5-|
E-|-------------5-3-3-------3---5-----------8-5-------|
There's just one body, the tie that binds us
And they will never tear it down
G-|---------------------------------------------------------|
D-|---2-5-2-------------------------7-5-----------7-----5---|
A-|-3-------5-3-------5-3-2---5---4-----7-5---------5/7---7-|
E-|-------------5-3-3-------3---5-----------8-5-5-----------|
Pressing forward, your hand in mine
Our hand in his, withstand the test of time
G-|---------------------------------------------------|
D-|---2-5-2-------------------------7-5---------------|
A-|-3-------5-3-------5-3-2---5---4-----7-5-----8-7-5-|
E-|-------------5-3-3-------3---5-----------8-5-------|
And through it all, one thing I've learned
A hand extended is soon returned

G-|---------------------------------------------------|
D-|-------------------------------------7-7-7-5-7-5-7-|
A-|-3-3-3-3-3-3-------------5-5-5-5-5-5---------------|
E-|-------------3-3-3-3-3-3---------------------------|
Few things in life that I have truly found
Worth sacrifice, worth laying my life down
G-|-------------------------------------------|
D-|-------------------------------------------|
A-|-3-3-3-3-3-3-------------5-5-5-5-5-5-8-7-5-|
E-|-------------3-3-3-3-3-3-------------------|
My best friend died for me, and I would die for him
And I die for you my friend

G-|---------------------------------------------------|
D-|-------------------------------------7-7-7-5-7-5-7-|
A-|-3-3-3-3-3-3-------------5-5-5-5-5-5---------------|
E-|-------------3-3-3-3-3-3---------------------------|
Living in a world, where values seem to change
Like the channels on TV, life becomes a talk show
G-|-------------------------------------------|
D-|-------------------------------------------|
A-|-3-3-3-3-3-3-------------5-5-5-5-5-5-8-7-5-|
E-|-------------3-3-3-3-3-3-------------------|
They'll bend us and we break
They can take away our lives
but they'll never break
The tie that binds

G-|----------------------------------------------------------------------|
D-|-----------------------------------5-2--------------------------------|
A-|-8-8-7-5-3-3-3-3-------5-5-5-5---------3-3-3-3-------5-5-5-5-8-7-5--5-|
E-|-----------------3-3-3---------5-5-------------3-3-3------------------|

Comments about this tab

No comments/corrections found. Add your own

Complimentary Christian Ringtones
Dadamobile and CGR have teamed up to bring your favorite Christian artists right to your phone. Sign up today and get 10 complementary ringtones!
Tab Country
Did you know CGR has a sister site w/ country guitar tabs? Well we do! Its called Tab Country. It has a great archive with a lot of country tabs.
Rockin Tabs
Are you looking for a site that has rock guitar tabs? Then Rockintabs.com is the place for you. It is a budding site with many rock guitar tabs. Submit your tab today.
Tab Gallery
Tab Gallery has a compilation of christian, rock, and country tabs all in one place. Come visit us.