Bass Tabs
(THIRD DAY) OR BY ARTIST NAME (JENNIFER KNAPP)
0-9|A|B|C|D|E|F|G|H|I|J|K|L|M|N|O|P|Q|R|S|T|U|V|W|X|Y|Z

Join Us Today!

Don't strum alone...
be a part of the largest online Christian music community. Browse thousands of guitar tabs and chat w/ musicians like yourself.


It's Free!

This tab has not yet been rated for accuracy.Sorry, but you must be logged in to rate this tab.
Click here to log-in, or you can click here to register.
(Registration is free)

All songs owned by Integrity and Brentwood-Benson are used by permission. If you make copies of any song on this website, be sure to report your usage to CCLI.
+------------------------------------------+
\  Artist     :  Squad Five-O               \
/  Song       :  Parental Guidance          /
\  Instrument :  Bass                       \
/  Tabbed by  :  Mike!    /
\___________________________________________\

Intro:
G-|-----------------------|
D-|-----------------------|
A-|-3---3---3--3--3-3-3-3-|
E-|-----------------------|

G-|-------------------------|
D-|---1---1-3-3-1-3-5-5-3-1-|
A-|-3---3-------------------|
E-|-------------------------|
When I was younger I thought I had it all figured out
I knew it all, I knew everything there was to know about
Adolescent rage, flying out of control,
I only did as I pleased, I never did as I was told

G-|---------|
D-|---3---3-|
A-|-3---3---|
E-|---------|

G-|-------------------------|
D-|---1---1-3-3-1-3-5-5-3-1-|
A-|-3---3-------------------|
E-|-------------------------|
You tried to show me the way, and then I laughed in your face
You were always on my side but I thought you were always on my case
Arrogant pride, too blind to ever see
I gave up on you, but you never gave up on me

G-|---------|
D-|---3---3-|
A-|-3---3---|
E-|---------|

G-|-----------------------------------------------------------------------|
D-|-----------------------------------2-3-3-3-3-3-2---------------------3-|
A-|-3-3-3-3-3-2-----------2-3-3-3-3-3---------------3-3-3-3-3-2-----------|
E-|-------------3-3-3-3-3---------------------------------------3-3-3-3---|
So this song goes out to you
To say thanks for all the things you do
And all the things you've done to see me through

G-|---------------------------------------2---2-3-2-----------------------|
D-|-----------------------------------3-3---3---------------------------3-|
A-|-3-5-3-5-3-2---------2-3-5-3-5-3-5---------------3-5-3-5-3-2-----------|
E-|-------------3-3-3-3-----------------------------------------3-3-3-3---|
What's right, and what's wrong
When words were short, your actions spoke just as strong
Because of you I am what I've become

G-|-----------------------|
D-|-----------------------|
A-|-3---3---3--3--3-3-3-3-|
E-|-----------------------|

G-|-------------------------|
D-|---1---1-3-3-1-3-5-5-3-1-|
A-|-3---3-------------------|
E-|-------------------------|
As time has passed I've come to understand that
You only wanted the best of things for me in the end
And now I know you always get what you are

G-|---------|
D-|---3---3-|
A-|-3---3---|
E-|---------|

G-|-------------------------|
D-|---1---1-3-3-1-3-5-5-3-1-|
A-|-3---3-------------------|
E-|-------------------------|
And to this very day when I think about you
I take pride, in how you are what shaped my attitude
For all the answers, to questions I could never ask
For everything that you gave when there was nothing left to give

G-|---------|
D-|---3---3-|
A-|-3---3---|
E-|---------|

G-|-----------------------------------------------------------------------|
D-|-----------------------------------2-3-3-3-3-3-2---------------------3-|
A-|-3-3-3-3-3-2-----------2-3-3-3-3-3---------------3-3-3-3-3-2-----------|
E-|-------------3-3-3-3-3---------------------------------------3-3-3-3---|
So this song goes out to you
To say thanks for all the things you do
And all the things you've done to see me through

G-|---------------------------------------2---2-3-2-----------------------|
D-|-----------------------------------3-3---3---------------------------3-|
A-|-3-5-3-5-3-2---------2-3-5-3-5-3-5---------------3-5-3-5-3-2-----------|
E-|-------------3-3-3-3-----------------------------------------3-3-3-3---|
What's right, and what's wrong
When words were short, your actions spoke just as strong
Because of you I am what I've become

G-|---|
D-|---|
A-|-3-|
E-|---|

Comments about this tab

No comments/corrections found. Add your own

Complimentary Christian Ringtones
Dadamobile and CGR have teamed up to bring your favorite Christian artists right to your phone. Sign up today and get 10 complementary ringtones!
Tab Country
Did you know CGR has a sister site w/ country guitar tabs? Well we do! Its called Tab Country. It has a great archive with a lot of country tabs.
Rockin Tabs
Are you looking for a site that has rock guitar tabs? Then Rockintabs.com is the place for you. It is a budding site with many rock guitar tabs. Submit your tab today.
Tab Gallery
Tab Gallery has a compilation of christian, rock, and country tabs all in one place. Come visit us.