Bass Tabs
(THIRD DAY) OR BY ARTIST NAME (JENNIFER KNAPP)
0-9|A|B|C|D|E|F|G|H|I|J|K|L|M|N|O|P|Q|R|S|T|U|V|W|X|Y|Z

Join Us Today!

Don't strum alone...
be a part of the largest online Christian music community. Browse thousands of guitar tabs and chat w/ musicians like yourself.


It's Free!

This tab has not yet been rated for accuracy.Sorry, but you must be logged in to rate this tab.
Click here to log-in, or you can click here to register.
(Registration is free)

All songs owned by Integrity and Brentwood-Benson are used by permission. If you make copies of any song on this website, be sure to report your usage to CCLI.
+------------------------------------------+
\  Artist     :  Squad Five-O               \
/  Song       :  My God, My Life            /
\  Instrument :  Bass                       \
/  Tabbed by  :  Mike!    /
\___________________________________________\

Intro:
G-|---------------------------------|
D-|---------------------------------| \ x2
A-|-5-5-5-3-------------------------| /
E-|---------5-5-5-0-3-3-3-3-3-3-5-3-|

G-|---------------------------------|
D-|---------------------------------|
A-|-5-5-5-3-------------------------|
E-|---------5-5-5-0-3-3-3-3-3-3-5-3-|
A million things in this man's world
that his life can revolve around
A million things that will fill him up
only to throw him further down

G-|-----------------------------|
D-|-----------------------------| \ x4
A-|-5-5-5-----------------------| /
E-|-------5-5-5-3-3-3-3-3-3-5-3-|

G-|-----------------------------|
D-|-----------------------------|
A-|-3-3-3-3-3-3-3-3-5-5-5-5-5-5-|
E-|-----------------------------|

G-|-----------------------------------------------------------------|
D-|-----------4-5-7---7-5-4-----4-5-----------4-5-7---7-5-4---------|
A-|---5-3-2---------3-------3-5-------5-3-2---------3-------3-3-3-3-|
E-|-3-------5-----------------------3-------5-----------------------|
I've seen the ways of man
His best laid plans often go astray
Not knowing how much time is left
until his final day
I watch him wander around
Searching for meaning where none can be found
He wants a purpose to life
But on purpose refuses the life

G-|-----------------|
D-|-----------------|
A-|-3-3-3-3-5-5-5-5-|
E-|-----------------|

G-|-----------------------------|
D-|-----------------------------|
A-|-5-5-5-----------------------|
E-|-------5-5-5-3-3-3-3-3-3-3-3-|
But I won't trade the truth for a lie
Or live by a false set of rules
I look to God for what is right
and fight the ways of this world

G-|-----------------------------|
D-|-----------------------------|
A-|-3-3-3-3-3-3-3-3-5-5-5-5-5-5-|
E-|-----------------------------|
Cause when it all comes down to it
I'll leave this world with who brought me into it

G-|-----------------------------------------------------------------|
D-|-----------4-5-7---7-5-4-----4-5-----------4-5-7---7-5-4---------|
A-|---5-3-2---------3-------3-5-------5-3-2---------3-------3-3-3-3-|
E-|-3-------5-----------------------3-------5-----------------------|
What power in this world
Gives you hope in the days to come
What strength can you derive
When it's out of your control
When the rivers all run dry
and every path is a dead end road
The truth of the matter comes to light
The truth will shatter the mold

G-|-----------------------------|
D-|-----------------------------|
A-|-3-3-3-3-3-3-3-3-5-5-5-5-5-5-|
E-|-----------------------------|

G-|-----------------------------|
D-|-----------------------------|
A-|-5-5-5-----------------------|
E-|-------5-5-5-3-3-3-3-3-3-3-3-|
But I won't trade the truth for a lie
Or live by a false set of rules
I look to God for what is right
and fight the ways of this world
G-|---------------------------------|
D-|---------------------------------|
A-|-5-5-5-3-------------------------|
E-|---------5-5-5-0-3-3-3-3-3-3-5-3-|
I'll fight the ways of this world
I'll fight the ways of this world
I'll fight the ways of this world
I'll fight the ways of this world

G-|-------------------------------|
D-|-------------------------------|
A-|-3-3-3-3-3-3-3-3-5-5-5-5-5-5---|
E-|-----------------------------3-|
Cause when it all comes down to it
I'll leave this world with who brought me into it

Comments about this tab

No comments/corrections found. Add your own

Complimentary Christian Ringtones
Dadamobile and CGR have teamed up to bring your favorite Christian artists right to your phone. Sign up today and get 10 complementary ringtones!
Tab Country
Did you know CGR has a sister site w/ country guitar tabs? Well we do! Its called Tab Country. It has a great archive with a lot of country tabs.
Rockin Tabs
Are you looking for a site that has rock guitar tabs? Then Rockintabs.com is the place for you. It is a budding site with many rock guitar tabs. Submit your tab today.
Tab Gallery
Tab Gallery has a compilation of christian, rock, and country tabs all in one place. Come visit us.