Bass Tabs
(THIRD DAY) OR BY ARTIST NAME (JENNIFER KNAPP)
0-9|A|B|C|D|E|F|G|H|I|J|K|L|M|N|O|P|Q|R|S|T|U|V|W|X|Y|Z

Join Us Today!

Don't strum alone...
be a part of the largest online Christian music community. Browse thousands of guitar tabs and chat w/ musicians like yourself.


It's Free!

This tab has not yet been rated for accuracy.Sorry, but you must be logged in to rate this tab.
Click here to log-in, or you can click here to register.
(Registration is free)

All songs owned by Integrity and Brentwood-Benson are used by permission. If you make copies of any song on this website, be sure to report your usage to CCLI.
+------------------------------------------+
\  Artist     :  Squad Five-O               \
/  Song       :  Kids Of The World Unite    /
\  Instrument :  Bass                       \
/  Tabbed by  :  Mike!    /
\___________________________________________\

Intro:
G-|-----------|
D-|-----------| \ x2
A-|-5-5---7-7-| /
E-|-----------|

G-|---------------------------------|
D-|---------------------------------|
A-|-------------5-5-------------7-7-|
E-|-7-7-7-7-7-7-----7-7-7-7-7-7-----|
What do you see in our future?
If we can't ever get along
Analyze the situation
No unity if there's no God

G-|-----------------|
D-|-----------------|
A-|-5-5-5-5-7-7-7-7-|
E-|-----------------|
Held together by the power of his might

G-|----------------------------------7-5-7-5---------7-|
D-|-------7---9-9-9-9-9-7--------4-5---------7-5---7---|
A-|---5-7---9-------------9-7--5-----------------5-----|
E-|-7--------------------------------------------------|
We are the young
We are the free
We are the only ones
Determined to change what we've become
G-|-------9-7-9-7-----------------------------|
D-|---6-7---------9-7-9-7---------7/9-7-------|
A-|-7---------------------9-7-----------9-7---|
E-|---------------------------7-------------5-|
We won't go gentle into that good night
Rage against the dying of the light

G-|----------------------------------7-5-7-5---------7-|
D-|-------7---9-9-9-9-9-7--------4-5---------7-5---7---|
A-|---5-7---9-------------9-7--5-----------------5-----|
E-|-7--------------------------------------------------|
As apathy and hate continue to destroy the nations
It seems self destruction is built into human nature
G-|-------9-7-9-7---------------|
D-|---6-7---------9-7-9-7-------|
A-|-7---------------------9-7---|
E-|---------------------------7-|
I got no time to self destruct in truth the time is right
Kids of the world unite!

G-|---------------------------------|
D-|---------------------------------|
A-|-------------5-5-------------7-7-|
E-|-7-7-7-7-7-7-----7-7-7-7-7-7-----|
Grasping at dreams of tomorrow
And now they're almost in our reach
But attaining peace through human effort
Is just the means to the end

G-|-----------------|
D-|-----------------|
A-|-5-5-5-5-7-7-7-7-|
E-|-----------------|
Held together by the power of his might

G-|----------------------------------7-5-7-5---------7-|
D-|-------7---9-9-9-9-9-7--------4-5---------7-5---7---|
A-|---5-7---9-------------9-7--5-----------------5-----|
E-|-7--------------------------------------------------|
We are the young
We are the free
We are the only ones
Determined to change what we've become
G-|-------9-7-9-7-----------------------------|
D-|---6-7---------9-7-9-7---------7/9-7-------|
A-|-7---------------------9-7-----------9-7---|
E-|---------------------------7-------------5-|
We won't go gentle into that good night
Rage against the dying of the light

G-|----------------------------------7-5-7-5---------7-|
D-|-------7---9-9-9-9-9-7--------4-5---------7-5---7---|
A-|---5-7---9-------------9-7--5-----------------5-----|
E-|-7--------------------------------------------------|
As apathy and hate continue to destroy the nations
It seems self destruction is built into human nature
G-|-------9-7-9-7---------------|
D-|---6-7---------9-7-9-7-------|
A-|-7---------------------9-7---|
E-|---------------------------7-|
I got no time to self destruct in truth the time is right
Kids of the world unite!

G-|---------------------------------|
D-|---------------------------------|
A-|-------------5-5-------------7-7-|
E-|-7-7-7-7-7-7-----7-7-7-7-7-7-----|
The answer lies in the body
To stand together as one
Conditioned to reflect the truth
Useless if we don't get along

G-|---------------------------------|
D-|---------------------------------| \ x2
A-|-------------5-5-------------7-7-| /
E-|-7-7-7-7-7-7-----7-7-7-7-7-7-----|

G-|-----------------|
D-|-----------------|
A-|-5-5-5-5-7-7-7-7-|
E-|-----------------|
Held together by the power of his might
G-|--------|
D-|--------|
A-|--------|
E-|-7----7-|
Kids of the world unite!

G-|-------------------------------------------------|
D-|-------9-7---------4-5-7---------9-7-6-9-9-7-----| \ x2
A-|-----------5-5-5-5-------7-7-7-7-------------9-7-| /
E-|-7-7-7-------------------------------------------|

G-|---------------------------------------------------------|
D-|-------9-7---------4-5-7---------9-7-6-9-9-9-9-9-9-7-----|
A-|-----------5-5-5-5-------7-7-7-7---------------------9-7-|
E-|-7-7-7---------------------------------------------------|
Kids of the world
Kids of the world
Kids of the world
Kids of the world...

Comments about this tab

No comments/corrections found. Add your own

Complimentary Christian Ringtones
Dadamobile and CGR have teamed up to bring your favorite Christian artists right to your phone. Sign up today and get 10 complementary ringtones!
Tab Country
Did you know CGR has a sister site w/ country guitar tabs? Well we do! Its called Tab Country. It has a great archive with a lot of country tabs.
Rockin Tabs
Are you looking for a site that has rock guitar tabs? Then Rockintabs.com is the place for you. It is a budding site with many rock guitar tabs. Submit your tab today.
Tab Gallery
Tab Gallery has a compilation of christian, rock, and country tabs all in one place. Come visit us.