Bass Tabs
(THIRD DAY) OR BY ARTIST NAME (JENNIFER KNAPP)
0-9|A|B|C|D|E|F|G|H|I|J|K|L|M|N|O|P|Q|R|S|T|U|V|W|X|Y|Z

Join Us Today!

Don't strum alone...
be a part of the largest online Christian music community. Browse thousands of guitar tabs and chat w/ musicians like yourself.


It's Free!

This tab has not yet been rated for accuracy.Sorry, but you must be logged in to rate this tab.
Click here to log-in, or you can click here to register.
(Registration is free)

All songs owned by Integrity and Brentwood-Benson are used by permission. If you make copies of any song on this website, be sure to report your usage to CCLI.
+------------------------------------------+
\  Artist     :  Squad Five-O               \
/  Song       :  Fight Back                 /
\  Instrument :  Bass                       \
/  Tabbed by  :  Mike!    /
\___________________________________________\

Intro:
G-|-----------------|      |---|
D-|-----------------| \ x3 |---|
A-|-2-2-2-----------| /    |-2-|
E-|-------3-3-3-5-5-|      |---|

G-|-------------------------------------------------------|
D-|-------------------------------------------------------|
A-|-2-2-2-----------2-2-2-----------2-2-2-----------7-5-3-|
E-|-------3-3-3-5-5-------3-3-3-5-5-------3-3-3-5-5-------|
This is a war
We bear the scars
Of our struggle
A struggle from with-
G-|---------------------------------------------------------|
D-|---------------------------------------------------------|
A-|-2-2-2-----------2-2-2-----------2-2-2-----------7-5-3-5-|
E-|-------3-3-3-5-5-------3-3-3-5-5-------3-3-3-5-5---------|
in our souls
We fight for freedom
To serve our God
And after all to stand

G-|---------------|
D-|-5-3---3---3---|
A-|-----5---5---3-|
E-|---------------|

G-|---------------------|
D-|-----------2-2/5---3-|
A-|-2-2/5---3-------5---|
E-|-------5-------------|
We took it on the chin
We won't do that again
This time you've gone too far
This time we fight back
We took it on the chin
We won't do that again
This time you've gone too far
This time we fight back

G-|-------------------------------------------------------|
D-|-------------------------------------------------------|
A-|-2-2-2-----------2-2-2-----------2-2-2-----------7-5-3-|
E-|-------3-3-3-5-5-------3-3-3-5-5-------3-3-3-5-5-------|
A price was paid
To set us free
And make us whole
And give us strength to
G-|---------------------------------------------------------|
D-|---------------------------------------------------------|
A-|-2-2-2-----------2-2-2-----------2-2-2-----------7-5-3-5-|
E-|-------3-3-3-5-5-------3-3-3-5-5-------3-3-3-5-5---------|
overcome
The evil powers
In the world around us
Victory is ours

G-|-----------------|
D-|-3/5-3---3---3---|
A-|-------5---5---3-|
E-|-----------------|

G-|---------------------|
D-|-----------2-2/5---3-|
A-|-2-2/5---3-------5---|
E-|-------5-------------|
We took it on the chin
We won't do that again
This time you've gone too far
This time we fight back
We took it on the chin
We won't do that again
This time you've gone too far
This time we fight back
Ooh..Fight back
Ooh..Fight back

G-|------4-4-2-2-----------------------|
D-|--------------4-4-2-2---------------|
A-|-2--------------------2-2-2-2-2/5-2-|
E-|------------------------------------|

G-|---------------------|
D-|-----------2-2/5---3-|
A-|-2-2/5---3-------5---|
E-|-------5-------------|
Fight back!
Fight back, Fight back, Fight back, Fight back, Fight back, Fight back,
This time we fight back
Fight back, Fight back, Fight back, Fight back, Fight back, Fight back,
This time we fight back

Comments about this tab

No comments/corrections found. Add your own

Complimentary Christian Ringtones
Dadamobile and CGR have teamed up to bring your favorite Christian artists right to your phone. Sign up today and get 10 complementary ringtones!
Tab Country
Did you know CGR has a sister site w/ country guitar tabs? Well we do! Its called Tab Country. It has a great archive with a lot of country tabs.
Rockin Tabs
Are you looking for a site that has rock guitar tabs? Then Rockintabs.com is the place for you. It is a budding site with many rock guitar tabs. Submit your tab today.
Tab Gallery
Tab Gallery has a compilation of christian, rock, and country tabs all in one place. Come visit us.