Bass Tabs
(THIRD DAY) OR BY ARTIST NAME (JENNIFER KNAPP)
0-9|A|B|C|D|E|F|G|H|I|J|K|L|M|N|O|P|Q|R|S|T|U|V|W|X|Y|Z

Join Us Today!

Don't strum alone...
be a part of the largest online Christian music community. Browse thousands of guitar tabs and chat w/ musicians like yourself.


It's Free!

This tab has not yet been rated for accuracy.Sorry, but you must be logged in to rate this tab.
Click here to log-in, or you can click here to register.
(Registration is free)

All songs owned by Integrity and Brentwood-Benson are used by permission. If you make copies of any song on this website, be sure to report your usage to CCLI.
+------------------------------------------+
\  Artist     :  Squad Five-O               \
/  Song       :  California                 /
\  Instrument :  Bass                       \
/  Tabbed by  :  Mike!    /
\___________________________________________\

G-|-------------------------------------------------------------|
D-|---------------------------------------------9-9-9-9-9-7-----|
A-|-5-5-5-5-7-7-7-7-------------5-5-5-5-7-7-7-7-------------9-7-|
E-|-----------------7-7-7-7-7-7---------------------------------|
Drive through the night with no end in sight
10 hour shift with 10 hours left
G-|-----------------------------------------------------|
D-|---------------------------------------------9-7-6---|
A-|-5-5-5-5-7-7-7-7-------------5-5-5-5-7-7-7-7-------9-|
E-|-----------------7-7-7-7-7-7-------------------------|
A rainy day when we pull into LA
Dreaming of my home 3000 miles away

G-|-------------------------------------------|
D-|-------------------7-----7-----9-----9---9-|
A-|-----------------5---5-5---7-7---7-7---7---|
E-|-5-5-5-5-7-7-7-7---------------------------|
Then I woke up in Southern California
A world away from the only life I've known
I'll spend a month stuck in California
People all around me but I've never felt so alone

G-|---------------------------------|
D-|-------------------4-7-4---------|
A-|---4-7-5---------5-------7-5-4---|
E-|-5-------7-5-4-2---------------5-|
So alone
So alone
Hollywood is nice but it won't ever beat my home sweet home
G-|---------------------------------|
D-|-------------------4-7-4---9---9-|
A-|---4-7-5---------5-------7---7---|
E-|-5-------7-5-4-2-----------------|
Three more weeks
In La Mirada
Money's running out and it's only getting harder

G-|---------------------------------|
D-|-----------4-7-4-----4-7---6-9-6-|
A-|-----4-7-5-------5-5-----7-------|
E-|-5-5-----------------------------|
Wasting my days away
Today I woke up at three
Tomorrow I'll do the same
G-|---------------------------------|
D-|-----------4-7-4-----4-7---9---9-|
A-|-----4-7-5-------5-5-----7---7---|
E-|-5-5-----------------------------|
Put on my aftershave
Get dressed and out the door by 4:58

G-|-------------------------------------------------------------|
D-|---------------------------------------------9-9-9-9-9-7-----|
A-|-5-5-5-5-7-7-7-7-------------5-5-5-5-7-7-7-7-------------9-7-|
E-|-----------------7-7-7-7-7-7---------------------------------|
We hit the streets and find a place to eat
Grab fourteen friends and jump into the van
G-|-----------------------------------------------------|
D-|---------------------------------------------9-7-6---|
A-|-5-5-5-5-7-7-7-7-------------5-5-5-5-7-7-7-7-------9-|
E-|-----------------7-7-7-7-7-7-------------------------|
Three to a seat we head to the beach
Ain't got no money but the waves are always free

G-|-------------------------------------------|
D-|-------------------7-----7-----9-----9---9-|
A-|-----------------5---5-5---7-7---7-7---7---|
E-|-5-5-5-5-7-7-7-7---------------------------|
I've found a home in Southern California
Sleep on a couch, crash in with the Jones'
It's not so bad being stuck in California
I've come to find however far away I'm not alone

G-|---------------------------------|
D-|-------------------4-7-4---------|
A-|---4-7-5---------5-------7-5-4---|
E-|-5-------7-5-4-2---------------5-|
Not alone
Not alone
I've found a family, a second home sweet home
G-|---------------------------------|
D-|-------------------4-7-4---9---9-|
A-|---4-7-5---------5-------7---7---|
E-|-5-------7-5-4-2-----------------|
Savannah, Georgia is always on my mind
City of Angels, residential for the meantime

G-|---------------------------------|
D-|-----------4-7-4-----4-7---6-9-6-|
A-|-----4-7-5-------5-5-----7-------|
E-|-5-5-----------------------------|
Watching time go by
Days turned into nights
Monday we take to the sky
G-|---------------------------------|
D-|-----------4-7-4-----4-7---9---9-|
A-|-----4-7-5-------5-5-----7---7---|
E-|-5-5-----------------------------|
Washington State
Then back for two days
Pack our bags
And drive away
G-|---------------------------------|
D-|-----------4-7-4-----4-7---6-9-6-|
A-|-----4-7-5-------5-5-----7-------|
E-|-5-5-----------------------------|
We drive away

G-|-----------------------------------|
D-|-----------4-7-4-----4-7---9---9---|
A-|-----4-7-5-------5-5-----7---7-----|
E-|-5-5-----------------------------5-|

Comments about this tab

No comments/corrections found. Add your own

Complimentary Christian Ringtones
Dadamobile and CGR have teamed up to bring your favorite Christian artists right to your phone. Sign up today and get 10 complementary ringtones!
Tab Country
Did you know CGR has a sister site w/ country guitar tabs? Well we do! Its called Tab Country. It has a great archive with a lot of country tabs.
Rockin Tabs
Are you looking for a site that has rock guitar tabs? Then Rockintabs.com is the place for you. It is a budding site with many rock guitar tabs. Submit your tab today.
Tab Gallery
Tab Gallery has a compilation of christian, rock, and country tabs all in one place. Come visit us.