Bass Tabs
(THIRD DAY) OR BY ARTIST NAME (JENNIFER KNAPP)
0-9|A|B|C|D|E|F|G|H|I|J|K|L|M|N|O|P|Q|R|S|T|U|V|W|X|Y|Z

Join Us Today!

Don't strum alone...
be a part of the largest online Christian music community. Browse thousands of guitar tabs and chat w/ musicians like yourself.


It's Free!

This tab has not yet been rated for accuracy.Sorry, but you must be logged in to rate this tab.
Click here to log-in, or you can click here to register.
(Registration is free)

All songs owned by Integrity and Brentwood-Benson are used by permission. If you make copies of any song on this website, be sure to report your usage to CCLI.
+------------------------------------------+
\  Artist     :  Squad Five-O               \
/  Song       :  Anthem of Jimi Rocketship  /
\  Instrument :  Bass                       \
/  Tabbed by  :  Mike!    /
\___________________________________________\

G-|-------------------------|
D-|-------------------------|
A-|---3-5------3-5------3-5-|
E-|-5-----5--5-----5--5-----|

G-|-------------------------------------|
D-|-------7-5-7-7-5-----------7-5-------|
A-|---5/7-----------7-5---5/7-------3-5-|
E-|-5-------------------5---------5-----|
We roam the streets of America
On a 30 gallon tank on the heels of a dream
Don't have much money or a good reputation
But things aren't always what they seem

G-|-----------5-5-3-3---3-------------5-5-3-3---------|
D-|-----2-3-2---------5---5-----2-3-2---------5-5-3-3-|
A-|-3-3---------------------3-3-----------------------|
E-|---------------------------------------------------|
I'm just a kid from the USA
With a guitar and something to say
I'm hanging out with Jimi Rocketship
On a mission with a Rock and Roll anthem

G-|-------------------------------------|
D-|-------7-5-7-7-5-----------7-5-------|
A-|---5/7-----------7-5---5/7-------3-5-|
E-|-5-------------------5---------5-----|
Friends by my side our God all around us
Music on the stereo the rhythm surrounds us
The rhythm of life the beat of life eternal
Insecurities laid low cause we're all in this together

G-|-----------5-5-3-3---3-------------5-5-3-3---------|
D-|-----2-3-2---------5---5-----2-3-2---------5-5-3-3-|
A-|-3-3---------------------3-3-----------------------|
E-|---------------------------------------------------|
I'm just a kid from the USA
With a guitar and something to say
I'm hanging out with Jimi Rocketship
On a mission with a Rock and Roll anthem

G-|-----------|
D-|-----------|
A-|-----------|
E-|-5----5----|

G-|---------|
D-|---------| \ x8
A-|---3-5---| /
E-|-5-----5-|

G-|-------------------------|
D-|-------------------------|
A-|---3-5------3-5------3-5-|
E-|-5-----5--5-----5--5-----|

G-|-------------------------------------|
D-|-------7-5-7-7-5-----------7-5-------|
A-|---5/7-----------7-5---5/7-------3-5-|
E-|-5-------------------5---------5-----|
We roam the streets of America
On 3 hours of sleep and some Mountain Dew
We don't have much except for eachother
A song of hope and a grip on the truth

G-|-----------5-5-3-3---3-------------5-5-3-3---------|
D-|-----2-3-2---------5---5-----2-3-2---------5-5-3-3-|
A-|-3-3---------------------3-3-----------------------|
E-|---------------------------------------------------|
I'm just a kid from the USA
With a guitar and something to say
I'm hanging out with Jimi Rocketship
On a mission with a Rock and Roll anthem

Comments about this tab

No comments/corrections found. Add your own

Complimentary Christian Ringtones
Dadamobile and CGR have teamed up to bring your favorite Christian artists right to your phone. Sign up today and get 10 complementary ringtones!
Tab Country
Did you know CGR has a sister site w/ country guitar tabs? Well we do! Its called Tab Country. It has a great archive with a lot of country tabs.
Rockin Tabs
Are you looking for a site that has rock guitar tabs? Then Rockintabs.com is the place for you. It is a budding site with many rock guitar tabs. Submit your tab today.
Tab Gallery
Tab Gallery has a compilation of christian, rock, and country tabs all in one place. Come visit us.