Bass Tabs
(THIRD DAY) OR BY ARTIST NAME (JENNIFER KNAPP)
0-9|A|B|C|D|E|F|G|H|I|J|K|L|M|N|O|P|Q|R|S|T|U|V|W|X|Y|Z

Join Us Today!

Don't strum alone...
be a part of the largest online Christian music community. Browse thousands of guitar tabs and chat w/ musicians like yourself.


It's Free!

This tab has not yet been rated for accuracy.Sorry, but you must be logged in to rate this tab.
Click here to log-in, or you can click here to register.
(Registration is free)

All songs owned by Integrity and Brentwood-Benson are used by permission. If you make copies of any song on this website, be sure to report your usage to CCLI.
+------------------------------------------+
\  Artist     :  Squad Five-O               \
/  Song       :  All In The Name Of God     /
\  Instrument :  Bass                       \
/  Tabbed by  :  Mike!    /
\___________________________________________\

Intro:
G-|-----------|
D-|-----------|
A-|-------5-3-|
E-|-----------|

G-|-----------------------------|
D-|-----------------------------|
A-|-5-5-5-5-3-3-3-3-7-7-7-7-5-3-|
E-|-----------------------------|
You say you have the right to kill
To seek and destroy at will
They've killed before the poor unborn
So you say you owe em one

G-|---------------------------------|
D-|---2---2-------------------5-3-2-|
A-|-3---3-----2---2---3---3-5-------|
E-|---------3---3---5---5-----------|
"All in the name of God"
"All in the name of God"
"All in the name of God"
"All in the name of God"

G-|-----------------------------|
D-|-----------------------------|
A-|-5-5-5-5-3-3-3-3-7-7-7-7-5-3-|
E-|-----------------------------|
You murder, you kill, you steal
Continue to impose your will
With blood on your hands, you make demands
Death to those you don't understand

G-|---------------------------------|
D-|---2---2-------------------5-3-2-|
A-|-3---3-----2---2---3---3-5-------|
E-|---------3---3---5---5-----------|
"All in the name of God"
"All in the name of God"
"All in the name of God"
"All in the name of God"

G-|-----------------------|
D-|-----------------------|
A-|-3-3-3---------------5-|
E-|-------3-3-3-5-5-5-5---|
It's a lie

G-|--------|
D-|--------|
A-|-5-3----|
E-|--------|

G-|---------------------------------|
D-|---2---2-------------------5-3-2-| \ x6
A-|-3---3-----2---2---3---3-5-------| /
E-|---------3---3---5---5-----------|

G-|---------------------------------|
D-|---2---2-------------------5-3-2-|
A-|-3---3-----2---2---3---3-5-------|
E-|---------3---3---5---5-----------|
"All in the name of God"
"All in the name of God"
"All in the name of God"
"All in the name of God"

G-|-------|
D-|-------|
A-|-3-----|
E-|---3-5-|

Comments about this tab

No comments/corrections found. Add your own

Complimentary Christian Ringtones
Dadamobile and CGR have teamed up to bring your favorite Christian artists right to your phone. Sign up today and get 10 complementary ringtones!
Tab Country
Did you know CGR has a sister site w/ country guitar tabs? Well we do! Its called Tab Country. It has a great archive with a lot of country tabs.
Rockin Tabs
Are you looking for a site that has rock guitar tabs? Then Rockintabs.com is the place for you. It is a budding site with many rock guitar tabs. Submit your tab today.
Tab Gallery
Tab Gallery has a compilation of christian, rock, and country tabs all in one place. Come visit us.