Bass Tabs
(THIRD DAY) OR BY ARTIST NAME (JENNIFER KNAPP)
0-9|A|B|C|D|E|F|G|H|I|J|K|L|M|N|O|P|Q|R|S|T|U|V|W|X|Y|Z

Join Us Today!

Don't strum alone...
be a part of the largest online Christian music community. Browse thousands of guitar tabs and chat w/ musicians like yourself.


It's Free!

This tab has not yet been rated for accuracy.Sorry, but you must be logged in to rate this tab.
Click here to log-in, or you can click here to register.
(Registration is free)

All songs owned by Integrity and Brentwood-Benson are used by permission. If you make copies of any song on this website, be sure to report your usage to CCLI.
forgive you
seven day jesus
the hunger
tabbed by jared gardner     punkrawkfreak@hotmail.com

start out with this:
G|----------------|
D|----------------|
A|----------------|
E|-2--2--2-2--2-2-|

the verse is just this:
G|----------------|
D|----------------|
A|----------------|
E|-4--4--4-4--4-4-|

then the chorus goes like this:
G|---------------------------|
D|---------------------------|
A|---------------------------|
E|-7--7-7-4--4-7--7--7-4-4-4-|

after the chorus play this:
G|------------------------|
D|------------------------|
A|------------------------|
E|-4--4--4--4-4-4-7-4-4-7-|-7-7-7-7-|

then after that:
G|---------------|
D|---------------|
A|---------------|
E|-4--2--4--2--7-|

last little bit at the end
G|----------------|
D|----------------|
A|----------------|
E|-4-7-7-4-7-7-4\-|


that's all, i guess, have fun

ps  if it's not right, tell me: punkrawkfreak@hotmail.com

Comments about this tab

YESILOVEMYJESUS - 2004-10-18

uh, those intro tabs really confused me cuz they were upside down, so here it is the way i like it

---------- ---------- ---------- ----------
--3------- -----3---- ----3----- ----5-----
--0------- -----0---- ----4----- ----4-----
---------- ---------- ---------- ----------
--3------- ---------- ----2----- ----3-----
---------- -----0---- ---------- ----------


YESILOVEMYJESUS - 2004-10-18

oh, another addition
e---------- ---------- ---------- ----------
B--3------- -----3---- ----3----- ----5-----
G--0------- -----0---- ----4----- ----4-----
D---------- ---------- ---------- ----------
A--3------- ---------- ----2----- ----3-----
E---------- -----0---- ---------- ----------


Guitar323k13l - 2006-08-30

if you move your top 2 fingers down a string each thats a Cadd9 not a Gsus4


Add a comment/correction

Complimentary Christian Ringtones
Dadamobile and CGR have teamed up to bring your favorite Christian artists right to your phone. Sign up today and get 10 complementary ringtones!
Tab Country
Did you know CGR has a sister site w/ country guitar tabs? Well we do! Its called Tab Country. It has a great archive with a lot of country tabs.
Rockin Tabs
Are you looking for a site that has rock guitar tabs? Then Rockintabs.com is the place for you. It is a budding site with many rock guitar tabs. Submit your tab today.
Tab Gallery
Tab Gallery has a compilation of christian, rock, and country tabs all in one place. Come visit us.