Bass Tabs
(THIRD DAY) OR BY ARTIST NAME (JENNIFER KNAPP)
0-9|A|B|C|D|E|F|G|H|I|J|K|L|M|N|O|P|Q|R|S|T|U|V|W|X|Y|Z

Join Us Today!

Don't strum alone...
be a part of the largest online Christian music community. Browse thousands of guitar tabs and chat w/ musicians like yourself.


It's Free!

This tab has not yet been rated for accuracy.Sorry, but you must be logged in to rate this tab.
Click here to log-in, or you can click here to register.
(Registration is free)

All songs owned by Integrity and Brentwood-Benson are used by permission. If you make copies of any song on this website, be sure to report your usage to CCLI.
Song:          Speak to me
Artist:        Reality Check
Cd:            Reality Check
Copyright:     1997 Starsong Records
 
 
Ok once again another Reality Check song...  to bad they already broke
up...  oh well.  anyways this is the song Speak to me on bass.  If you have
any questions, corrections, anything of the sort just eamil me at: scott1@usit.net
 
 
 1st part to verses:
 
 G|------------------------------------------|
 D|--------------------4-2-------------------|
 A|-2--4--4-4--2--4-4-------2-4-4-4--2-4-1---|
 E|------------------------------------------|
 
 Then there is sort of a little lead in to the next part of the verses
 and here it is:
 
 G|-------9/10---|
 D|---9----------|
 A|--------------|
 E|--------------|
 
2nd part ot verses:

G|-------------------2---------------------------|
D|----4-4----2--4-------4---------4-4-----2-3-4--|
A|---------4------4--------------------4---------|
E|--2--------------------------2-----------------|


The chorus is hte same as the 1st verse riff. so all you do us play it over,
but just the 1st riff of the verses


here's the bridge(I think it's the bridge at least)

G|-------9H10--------------------------|
D|------------------9--11--------9-----|
A|--------------11-----------11-----9--|
E|----9--------------------------------|

then there is one more part during the bridge and this is it:

G|------------------------|
D|------------------------|
A|----4------------2--4---|
E|-------2--3--4----------|


That should wrap it up, but if you have any questions of corrections please
email them to me


Scott Beavers
"Jam for the Lamb"

Comments about this tab

No comments/corrections found. Add your own

Complimentary Christian Ringtones
Dadamobile and CGR have teamed up to bring your favorite Christian artists right to your phone. Sign up today and get 10 complementary ringtones!
Tab Country
Did you know CGR has a sister site w/ country guitar tabs? Well we do! Its called Tab Country. It has a great archive with a lot of country tabs.
Rockin Tabs
Are you looking for a site that has rock guitar tabs? Then Rockintabs.com is the place for you. It is a budding site with many rock guitar tabs. Submit your tab today.
Tab Gallery
Tab Gallery has a compilation of christian, rock, and country tabs all in one place. Come visit us.