Bass Tabs
(THIRD DAY) OR BY ARTIST NAME (JENNIFER KNAPP)
0-9|A|B|C|D|E|F|G|H|I|J|K|L|M|N|O|P|Q|R|S|T|U|V|W|X|Y|Z

Join Us Today!

Don't strum alone...
be a part of the largest online Christian music community. Browse thousands of guitar tabs and chat w/ musicians like yourself.


It's Free!

P.O.D. - Southtown

This tab has been rated a 2.50 out of 5 for accuracy. (2 votes)Sorry, but you must be logged in to rate this tab.
Click here to log-in, or you can click here to register.
(Registration is free)

All songs owned by Integrity and Brentwood-Benson are used by permission. If you make copies of any song on this website, be sure to report your usage to CCLI.
Song:       Southtown
Copyright:  1999 Atlantic Records

After buying POD's full length Album I realised that the 
bass on the fulll length is different than on the EP so 
here is the Correct Album version

Intro with Flanger:
NOTE:  rhythms may not be 100 percent correct but the notes 
should be

G|--9-9-9--------------------------9-9-9----------------|
D|---------10-10--10----10-10-10-----------7-7-7--7-7-7-|
A|------------------------------------------------------|
D|------------------------------------------------------|

G|--9-9-9-9-------------------9-9-9-9-------------------|
D|-----------10(repeat note -----------7(repeat note ---|
A|-----------------12 times)-----------------8 times)---|
D|------------------------------------------------------|

G|--9----9-----------12---------12----|-9----9----------9-----9---|
D|----10---10--10-10----10--10-----10-|---10---10--7--7---7-7---7-|
A|------------------------------------|---------------------------|
D|------------------------------------|---------------------------|

Verses
Flanger off

G|---|--------------------------------------|
D|---|--------------------------------------|
A|---|--------------------------------------|
D|-7-|--3-3-3--3--3-3-3\7--0-0-0--0--0-0-0--|

PreChorus
Flanger on

G|----------------------|
D|-----2/3\2------------|
A|------------5---------|
D|--0------------7---0--|

Chorus
Flanger off

G|--------------------------|
D|--------------------------|
A|--------------------------|
D|--3-3----3-3---0-0---0-0--|

2nd or 3rd time through th chorus this is added

G|---------------------------------|
D|------3/5-5-5-5-------3/5-5-5-5--|
A|---------------------------------|
D|--3-3------------3-3-------------|

G|---------------------------------|
D|------1\2-2-2-2-------1/2-2-2-2--|
A|---------------------------------|
D|--0-0------------0-0-------------|

Bridge has bass but it's covered up so much i can't 
make it out or you can just let guitar play

Like this... part
heavy trebly distortion or overdrive

G|-------------------------|
D|-------------------------|
A|-------------------------|
D|-0---1---2---0--1--2-----|

that's all the parts for the rest of the song just 
play the other parts with distortion

that should be all, but if you have questions comments ect.
 just email me at scott1@usit.net

Scott Beavers
Jam for the Lamb

Comments about this tab

No comments/corrections found. Add your own

Complimentary Christian Ringtones
Dadamobile and CGR have teamed up to bring your favorite Christian artists right to your phone. Sign up today and get 10 complementary ringtones!
Tab Country
Did you know CGR has a sister site w/ country guitar tabs? Well we do! Its called Tab Country. It has a great archive with a lot of country tabs.
Rockin Tabs
Are you looking for a site that has rock guitar tabs? Then Rockintabs.com is the place for you. It is a budding site with many rock guitar tabs. Submit your tab today.
Tab Gallery
Tab Gallery has a compilation of christian, rock, and country tabs all in one place. Come visit us.