Bass Tabs
(THIRD DAY) OR BY ARTIST NAME (JENNIFER KNAPP)
0-9|A|B|C|D|E|F|G|H|I|J|K|L|M|N|O|P|Q|R|S|T|U|V|W|X|Y|Z

Join Us Today!

Don't strum alone...
be a part of the largest online Christian music community. Browse thousands of guitar tabs and chat w/ musicians like yourself.


It's Free!

P.O.D. - Southtown

This tab has not yet been rated for accuracy.Sorry, but you must be logged in to rate this tab.
Click here to log-in, or you can click here to register.
(Registration is free)

All songs owned by Integrity and Brentwood-Benson are used by permission. If you make copies of any song on this website, be sure to report your usage to CCLI.
Song:           Southtown
Band:           P.O.D.
Cd:             Warriors EP
Copyright:      1999 Tooth and Nail Records


Dropped-D tuning


Intro:

G|------------9---------10-----------------------12--10-----|
D|-----7--10-----10---------10------------------------------|
A|-------------------8----------8-8-8-8-8-8-8-8-------------|
D|----------------------------------------------------------|


Verse:

G|----------------------------------------------------------|
D|----------------------------------------------------------|
A|----------------------------------------------------------|
D|-----7---3-3-3---3-3---3-3-3---7---0-0-0---0-0---0-0-0----|


I really don't know what this is called, but everything slows down here
so hopefully you can tell what this is.  This isn't 100 percent correct
but by the tiem you read this I will have this part figured out so just
email me if you really need it.

G|---------------------------------------|
D|-----2----3----5-----------------------|
A|----------------------5----------------|
D|---------------------------7----0------|

Chorus

G|-------------------------------------------------------|
D|-------------------------------------------------------|
A|-------------------------------------------------------|
D|---3--3--3/15---3--3--3/15---0--0--0/12---0--0--0/12---|


I think this is the bridge

G|-----------------------------------|
D|-----------------------------------|
A|-----------------------------------|
D|---0---2--3-----0--2--3--X-X-X-----|


This should be the whole song but you you have any questions comments or
any of the other usuals or unusuals gimme an email at  

scott1@usit.net

Scott Beavers
Jam for the Lamb

Comments about this tab

No comments/corrections found. Add your own

Complimentary Christian Ringtones
Dadamobile and CGR have teamed up to bring your favorite Christian artists right to your phone. Sign up today and get 10 complementary ringtones!
Tab Country
Did you know CGR has a sister site w/ country guitar tabs? Well we do! Its called Tab Country. It has a great archive with a lot of country tabs.
Rockin Tabs
Are you looking for a site that has rock guitar tabs? Then Rockintabs.com is the place for you. It is a budding site with many rock guitar tabs. Submit your tab today.
Tab Gallery
Tab Gallery has a compilation of christian, rock, and country tabs all in one place. Come visit us.