Bass Tabs
(THIRD DAY) OR BY ARTIST NAME (JENNIFER KNAPP)
0-9|A|B|C|D|E|F|G|H|I|J|K|L|M|N|O|P|Q|R|S|T|U|V|W|X|Y|Z

Join Us Today!

Don't strum alone...
be a part of the largest online Christian music community. Browse thousands of guitar tabs and chat w/ musicians like yourself.


It's Free!

Newsboys - Entertaining Angels

This tab has been rated a 3.43 out of 5 for accuracy. (7 votes)Sorry, but you must be logged in to rate this tab.
Click here to log-in, or you can click here to register.
(Registration is free)

All songs owned by Integrity and Brentwood-Benson are used by permission. If you make copies of any song on this website, be sure to report your usage to CCLI.
Song Title: Entertaining Angels
Artist: Newsboys
Album: Step Up To The Microphone
Written By: Davis, Furler, and Joel
1998 Helmet Publishing/Dawn Treader Music/Fried Kiwi
Transcribed By: Charlie Edinburgh 


Intro (after strings) and Chorus:

g------------------------------------------------------------
d------------------------------------------------------------
a------------------------------------------------------------
e--\5----/10-------------------------------------------------

Verse 1:

A B G A

E G D G    

A B G A                           
  
E G



Chorus:  (Play Chorus Riff)


Verse 2:

Chorus

Bridge Part:
F F E

Bridge Riff: 1st Part - 2x
g------------------------------------------------------------
d------------------------------------------------------------
a---------3-----5--------------------------------------------
e---3--5-----5-----------------------------------------------

2nd Part - 3 1/2x
g------------------------------------------------------
d------------------------------------------------------
a---5---------------3-----5----------------------------
e--------3----3--5-----5-------------------------------

The new album rocks!! If you don't have it, drop what you are doing
and go and get it!!
Check out my webpage http://www.geocities.com/SunsetStrip/Stadium/7287

Comments about this tab

No comments/corrections found. Add your own

Complimentary Christian Ringtones
Dadamobile and CGR have teamed up to bring your favorite Christian artists right to your phone. Sign up today and get 10 complementary ringtones!
Tab Country
Did you know CGR has a sister site w/ country guitar tabs? Well we do! Its called Tab Country. It has a great archive with a lot of country tabs.
Rockin Tabs
Are you looking for a site that has rock guitar tabs? Then Rockintabs.com is the place for you. It is a budding site with many rock guitar tabs. Submit your tab today.
Tab Gallery
Tab Gallery has a compilation of christian, rock, and country tabs all in one place. Come visit us.