Bass Tabs
(THIRD DAY) OR BY ARTIST NAME (JENNIFER KNAPP)
0-9|A|B|C|D|E|F|G|H|I|J|K|L|M|N|O|P|Q|R|S|T|U|V|W|X|Y|Z

Join Us Today!

Don't strum alone...
be a part of the largest online Christian music community. Browse thousands of guitar tabs and chat w/ musicians like yourself.


It's Free!

MxPx - Under Lock and Key

This tab has been rated a 2.50 out of 5 for accuracy. (2 votes)Sorry, but you must be logged in to rate this tab.
Click here to log-in, or you can click here to register.
(Registration is free)

All songs owned by Integrity and Brentwood-Benson are used by permission. If you make copies of any song on this website, be sure to report your usage to CCLI.
Song: Under Lock and Key
CD: Slowly Going the Way of the Buffalo
Copyright: 1998, Tooth & Nail Records
Tabbed by: Andrew at MxPx2529@aol.com

        This tab is from 99.9% accurate to 100%. So if you have any
questions or comments e-mail or i.m. me.

Opening:   *** Rytheme not 100% accurate ***

A ----66666666----------------------------------------- 
E -------------6-88888888-3-44444444-5-66666666--------   2x

Verse:    Hold every chord

A --6------------------------------------------ 
E -----------4----------6---------8-----6------     2x

Chorus:     *** Rytheme not 100% accurate ***

A ------------333333333-6666666----------------
E ---33333333-------------------66666666-------    2x

Bridge:

A ---6666--------------------
E ---------44-3-4-6----------     4x

Bass Solo:

A ----66666666---------------------------------------
E -------------6-88888888-3-44444444-5-66666666------   2x

Ending:
 
     (Same as Bridge)

Comments about this tab

No comments/corrections found. Add your own

Complimentary Christian Ringtones
Dadamobile and CGR have teamed up to bring your favorite Christian artists right to your phone. Sign up today and get 10 complementary ringtones!
Tab Country
Did you know CGR has a sister site w/ country guitar tabs? Well we do! Its called Tab Country. It has a great archive with a lot of country tabs.
Rockin Tabs
Are you looking for a site that has rock guitar tabs? Then Rockintabs.com is the place for you. It is a budding site with many rock guitar tabs. Submit your tab today.
Tab Gallery
Tab Gallery has a compilation of christian, rock, and country tabs all in one place. Come visit us.