Bass Tabs
(THIRD DAY) OR BY ARTIST NAME (JENNIFER KNAPP)
0-9|A|B|C|D|E|F|G|H|I|J|K|L|M|N|O|P|Q|R|S|T|U|V|W|X|Y|Z

Join Us Today!

Don't strum alone...
be a part of the largest online Christian music community. Browse thousands of guitar tabs and chat w/ musicians like yourself.


It's Free!

MxPx - Theme Fiasco, The

This tab has been rated a 5.00 out of 5 for accuracy. (2 votes)Sorry, but you must be logged in to rate this tab.
Click here to log-in, or you can click here to register.
(Registration is free)

All songs owned by Integrity and Brentwood-Benson are used by permission. If you make copies of any song on this website, be sure to report your usage to CCLI.
MxPx: The Theme Fiasco
From: Slowly Going the way of the Buffalo
Copyright 1998 A&M Records
Tabbed by: Chris (sttuffy@email.com) with help!
Good Luck!


         Part 1                                           4x            
G---||----------------------------------------------------||------------
D---||*--5--5--------5--------8--------5--------8--------*||------------
A---||*--------7--7-----7--7-----7--7-----7--7-----7--7--*||------------
E---||----------------------------------------------------||------------

                                                                        
G---------||------------------------------------------------------------
D---5--5--||------------------------------------------------------------
A---------||------------------------------------------------------------
E---------||------------------------------------------------------------

         Part 2         Pause between each                4x            
G---||----------------------------------------------------||------------
D---||*--------5--------8--------5--------8--------5--5--*||------------
A---||*--7--7-----7--7-----7--7-----7--7-----7--7--------*||------------
E---||----------------------------------------------------||------------

                                                                        
G---------||------------------------------------------------------------
D---------||------------------------------------------------------------
A---7~~~--||------------------------------------------------------------
E---------||------------------------------------------------------------

         Part 3                                                         
G---||------------------------------------------------------------------
D---||*--------6--6-----------7--7-----------8--8-----------------------
A---||*--7--7--------5--7--7--------5--7--7-----------------------------
E---||------------------------------------------------------------------

    4th time, go to part 4               4x                             
G------||--------------------------------||--||-------------------------
D------||----9--8-----9--8--------------*||--||-------------------------
A---5--||/7--------7--------7-----------*||--||-------------------------
E------||--------------------------------||--||-------------------------

         Part 4                                           2x            
G---||------------7-----------------7--------9--7---------||--||--------
D---||*-----9--8-----9--8-----9--8-----9--8--------9--8--*||--||--------
A---||*--7-----------------7-----------------------------*||--||--------
E---||----------------------------------------------------||--||--------

         Part 5                                                         
G---||------------------------------------------------------------------
D---||*--------8--8--7--7--------7--7--5--5--------------------5--5-----
A---||*--7--7--------------7--7--------------7--7--5--5--6--6-----------
E---||------------------------------------------------------------------

                                                                        
G---------------------5--5--4--4--------------------||------------------
D---------5--5--7--7--------------5--5--------7--7--||------------------
A---7--7--------------------------------5--5--------||------------------
E---------------------------------------------------||------------------


         Part 6                                                         
G---||------------------------------------------------------------------
D---||*--------8--8--7--7--------7--7--5--5-----------------------------
A---||*--7--7--------------7--7--------------7--7--5--5--6--6--7--7-----
E---||------------------------------------------------------------------

                                                                        
G---------------5--5--4--4-----------------||---------------------------
D---5--5--7--7--------------5--5--------7--||---------------------------
A---------------------------------5--5-----||---------------------------
E------------------------------------------||---------------------------


         Part 7               Stacato Guitar                            
G---||------------------------------------------------------------------
D---||*-----------------------------------------------------------------
A---||*--7--7--------7--7-----------------------------------------------
E---||------------------------------------------------------------------


           4x                                                           
G----------||-----------------------------------------------------------
D------5--*||-----------------------------------------------------------
A---------*||-----------------------------------------------------------
E----------||-----------------------------------------------------------


    After heavy snare                                            8x     
G----------------------------------------------------------------||-----
D---------------------------------------------------------------*||-----
A------------------------------------------------------5-----5--*||-----
E---0--------0--3--------0--5--------0--6--------0--7-----7------||-----



========================================================================
==            Created with a demo version of BUCKET O' TAB            ==
==              tablature creation software for Windows               ==
==                   http://www.his.com/~gse/bucket                   ==
========================================================================

Comments about this tab

No comments/corrections found. Add your own

Complimentary Christian Ringtones
Dadamobile and CGR have teamed up to bring your favorite Christian artists right to your phone. Sign up today and get 10 complementary ringtones!
Tab Country
Did you know CGR has a sister site w/ country guitar tabs? Well we do! Its called Tab Country. It has a great archive with a lot of country tabs.
Rockin Tabs
Are you looking for a site that has rock guitar tabs? Then Rockintabs.com is the place for you. It is a budding site with many rock guitar tabs. Submit your tab today.
Tab Gallery
Tab Gallery has a compilation of christian, rock, and country tabs all in one place. Come visit us.