Bass Tabs
(THIRD DAY) OR BY ARTIST NAME (JENNIFER KNAPP)
0-9|A|B|C|D|E|F|G|H|I|J|K|L|M|N|O|P|Q|R|S|T|U|V|W|X|Y|Z

Join Us Today!

Don't strum alone...
be a part of the largest online Christian music community. Browse thousands of guitar tabs and chat w/ musicians like yourself.


It's Free!

MxPx - Opposite of Intellect, The

This tab has not yet been rated for accuracy.Sorry, but you must be logged in to rate this tab.
Click here to log-in, or you can click here to register.
(Registration is free)

All songs owned by Integrity and Brentwood-Benson are used by permission. If you make copies of any song on this website, be sure to report your usage to CCLI.
+------------------------------------------+
\  Artist     :  MxPx                       \
/  Song       :  The Opposite of Intellect  /
\  Instrument :  Bass                       \
/  Tabbed by  :  Mike!    /
\___________________________________________\

Intro:
G-|---6-7-6-----6-7-6-----|
D-|-9-------7-9-------7-9-|
A-|-----------------------|
E-|-----------------------|

G-|---------------------------------------------------------|
D-|---------------------------------------------------------|
A-|-------------7-7-7-7-7-7-5-5-5-5-5-5---------------5---5-|
E-|-5-5-5-5-5-5-------------------------5-5-5-5-5-5-5---5---|
it seems so hard to get away from last week and yesterday
i have to sit right here and watch it all go by
G-|---------------------------------------------------|
D-|---------------------------------------------------|
A-|-------------7-7-7-7-7-7-5-5-5-5-5-5---------------|
E-|-5-5-5-5-5-5-------------------------5-5-5-5-5-5-5-|
is this really happening? maybe this is just a dream
when i wake up ill be someone else

G-|-------------------------------------|
D-|-------------------------------------|
A-|-------------5-5-5-5-5-5-------------|
E-|-3-3-3-3-3-3-------------5-5-5-5-5-5-|
Yeah Yeah Yeah
Yeah Yeah Yeah

G-|-----------------------------------------------------------------|
D-|-----------------------------------------------------------------|
A-|-5-5-5-5-5-5-5-5-----------------5-5-5-5-5-5-5-5-----------------|
E-|-----------------3-3-3-3-3-3-3-3-----------------3-3-3-3-5-5-5-5-|
i don't want to grow up, not just yet
i don't wanna have to see your false sense of reality
i don't wanna grow up, not just yet
i don't wanna have to know how to play in your game
G-|-----------------|
D-|-----------------|
A-|-5-5-5-5-5-5-5-5-|
E-|-----------------|
show

G-|---------------------------------|
D-|---------------------------------|
A-|-----------------5-5-5-5-5-5-5-5-|
E-|-3-3-3-3-3-3-3-3-----------------|
just don't ask me if you're getting thru to me
just don't tell me the way that you want me to be
you say ill fit nicely in society
you only took a superficial look at me
G-|-----------------|
D-|-----------------|
A-|-5-5-5-5-5-5-5-5-|
E-|-----------------|
Yeah Yeah

G-|-------6-7-6---------6-7-6---------6-7-6-------------------|
D-|-9-7-9-------7-9-7-9-------7-9-7-9-------7-9-7-9-7-9-7-9-7-|
A-|-----------------------------------------------------------|
E-|-----------------------------------------------------------|

G-|---------------------------------------------------------|
D-|---------------------------------------------------------|
A-|-------------7-7-7-7-7-7-5-5-5-5-5-5---------------5---5-|
E-|-5-5-5-5-5-5-------------------------5-5-5-5-5-5-5---5---|
why can't i say i'm sick of you? is it wrong to say what's true?
i'm skeptical about your point of view
G-|---------------------------------------------------|
D-|---------------------------------------------------|
A-|-------------7-7-7-7-7-7-5-5-5-5-5-5---------------|
E-|-5-5-5-5-5-5-------------------------5-5-5-5-5-5-5-|
teaching us not to reflect, the opposite of intellect
don't resist authority and you'll be fine
G-|-------------------------------------|
D-|-------------------------------------|
A-|-------------5-5-5-5-5-5-------------|
E-|-3-3-3-3-3-3-------------5-5-5-5-5-5-|
you don't want me to speak my mind.
you don't want me to speak my mind.

G-|-----------------------------------------------------------------|
D-|-----------------------------------------------------------------|
A-|-5-5-5-5-5-5-5-5-----------------5-5-5-5-5-5-5-5-----------------|
E-|-----------------3-3-3-3-3-3-3-3-----------------3-3-3-3-5-5-5-5-|
i don't want to grow up, not just yet
i don't wanna have to see your false sense of reality
i don't wanna grow up, not just yet
i don't wanna have to know how to play in your game
G-|-----------------|
D-|-----------------|
A-|-5-5-5-5-5-5-5-5-|
E-|-----------------|
show

G-|---------------------------------|
D-|---------------------------------|
A-|-----------------5-5-5-5-5-5-5-5-|
E-|-3-3-3-3-3-3-3-3-----------------|
just don't ask me if you're getting thru to me
just don't tell me the way that you want me to be
you say ill fit nicely in society
you only took a superficial look at me
G-|-----------------|
D-|-----------------|
A-|-5-5-5-5-5-5-5-5-|
E-|-----------------|
Yeah Yeah

G-|-------------------------------------|
D-|-------------------------------------|
A-|-------------5-5-5-5-5-5-------------|
E-|-3-3-3-3-3-3-------------5-5-5-5-5-5-|
you don't want me to speak my mind.
you don't want me to speak my mind.
you don't want me to speak my mind.
you don't want me to speak my mind.

Comments about this tab

No comments/corrections found. Add your own

Complimentary Christian Ringtones
Dadamobile and CGR have teamed up to bring your favorite Christian artists right to your phone. Sign up today and get 10 complementary ringtones!
Tab Country
Did you know CGR has a sister site w/ country guitar tabs? Well we do! Its called Tab Country. It has a great archive with a lot of country tabs.
Rockin Tabs
Are you looking for a site that has rock guitar tabs? Then Rockintabs.com is the place for you. It is a budding site with many rock guitar tabs. Submit your tab today.
Tab Gallery
Tab Gallery has a compilation of christian, rock, and country tabs all in one place. Come visit us.