Bass Tabs
(THIRD DAY) OR BY ARTIST NAME (JENNIFER KNAPP)
0-9|A|B|C|D|E|F|G|H|I|J|K|L|M|N|O|P|Q|R|S|T|U|V|W|X|Y|Z

Join Us Today!

Don't strum alone...
be a part of the largest online Christian music community. Browse thousands of guitar tabs and chat w/ musicians like yourself.


It's Free!

MxPx - Sugarcoated Poison Apple

This tab has not yet been rated for accuracy.Sorry, but you must be logged in to rate this tab.
Click here to log-in, or you can click here to register.
(Registration is free)

All songs owned by Integrity and Brentwood-Benson are used by permission. If you make copies of any song on this website, be sure to report your usage to CCLI.
+------------------------------------------+
\  Artist     :  MxPx                       \
/  Song       :  Sugarcoated Poison Apple   /
\  Instrument :  Bass                       \
/  Tabbed by  :  Mike!    /
\___________________________________________\

G-|-----------------------------------------------------------------|
D-|---------------------------------2-2-2-2-2-2-2-2-3-3-3-3-5-5-5-5-|
A-|-3-3-3-3-3-3-3-3-------------------------------------------------|
E-|-----------------3-3-3-3-3-3-3-3---------------------------------|
it eats at you i know, but it's so hard to let it go
let yourself go yah just let yourself go
it consumes you can't you see that sin hates everybody
everybody, sin hates everybody

G-|------------------------------------|
D-|--------------2-2-2-2-2-3-3-3-5-5-5-|
A-|-3-3-3-3-3--------------------------|
E-|-----------3------------------------|
even though i know the reasons why, it breaks me down i want to cry
i search for comfort in a friend, when will my troubles ever end?
G-|-----------------------------------------------------------------|
D-|---------------------------------2-2-2-2-2-2-2-2-3-3-3-3-5-5-5-5-|
A-|-3-3-3-3-3-3-3-3-------------------------------------------------|
E-|-----------------3-3-3-3-3-3-3-3---------------------------------|
ever end?
never end

G-|----------------------------------------------------|
D-|----------------------------------------------------|
A-|-3-3-3-3-3-3-3-3------------------------------------|
E-|-----------------1--0-0-0-0-0-0-0-0-1-1-1-1-3-3-3-3-|
the sugarcoated poisoned apple
tastes so good that you can't see
the death and decay that's inside
and what it's done to me
the sugarcoated poisoned apple
tastes do good how could you know
its deciteful lies
and where you're gonna go
you won't know

G-|---------------------|
D-|---------------------| \ x4
A-|-3-3-3-3-3-3-3-3---2-| /
E-|-----------------3---|

G-|-----------------------------------------------------------------|
D-|---------------------------------2-2-2-2-2-2-2-2-3-3-3-3-5-5-5-5-|
A-|-3-3-3-3-3-3-3-3-------------------------------------------------|
E-|-----------------3-3-3-3-3-3-3-3---------------------------------|
it eats at you i know, but it's so hard to let it go
let yourself go yah just let yourself go
it consumes you can't you see that sin hates everybody
everybody, sin hates everybody

G-|------------------------------------|
D-|--------------2-2-2-2-2-3-3-3-5-5-5-|
A-|-3-3-3-3-3--------------------------|
E-|-----------3------------------------|
even though i know the reasons why, it breaks me down i want to cry
i search for comfort in a friend, when will my troubles ever end?
G-|-----------------------------------------------------------------|
D-|---------------------------------2-2-2-2-2-2-2-2-3-3-3-3-5-5-5-5-|
A-|-3-3-3-3-3-3-3-3-------------------------------------------------|
E-|-----------------3-3-3-3-3-3-3-3---------------------------------|
ever end?
never end

G-|----------------------------------------------------|
D-|----------------------------------------------------|
A-|-3-3-3-3-3-3-3-3------------------------------------|
E-|-----------------1--0-0-0-0-0-0-0-0-1-1-1-1-3-3-3-3-|
the sugarcoated poisoned apple
tastes so good that you can't see
the death and decay that's inside
and what it's done to me
the sugarcoated poisoned apple
tastes do good how could you know
its deciteful lies
and where you're gonna go
you won't know

G-|---------------------|
D-|---------------------| \ x4
A-|-3-3-3-3-3-3-3-3---2-| /
E-|-----------------3---|

Outro:
G-|-------------------------------------------------------------------------|
D-|-----------------------3-3-3-3-3-3-3-3-3-3-3-3-2-2-2-2-2-2-3-3-3-5-5-5---|
A-|-3-3-3-3-3-3-3-3-3-3-3-------------------------------------------------3-|
E-|-------------------------------------------------------------------------|

Comments about this tab

No comments/corrections found. Add your own

Complimentary Christian Ringtones
Dadamobile and CGR have teamed up to bring your favorite Christian artists right to your phone. Sign up today and get 10 complementary ringtones!
Tab Country
Did you know CGR has a sister site w/ country guitar tabs? Well we do! Its called Tab Country. It has a great archive with a lot of country tabs.
Rockin Tabs
Are you looking for a site that has rock guitar tabs? Then Rockintabs.com is the place for you. It is a budding site with many rock guitar tabs. Submit your tab today.
Tab Gallery
Tab Gallery has a compilation of christian, rock, and country tabs all in one place. Come visit us.