Bass Tabs
(THIRD DAY) OR BY ARTIST NAME (JENNIFER KNAPP)
0-9|A|B|C|D|E|F|G|H|I|J|K|L|M|N|O|P|Q|R|S|T|U|V|W|X|Y|Z

Join Us Today!

Don't strum alone...
be a part of the largest online Christian music community. Browse thousands of guitar tabs and chat w/ musicians like yourself.


It's Free!

MxPx - Set the Record Straight

This tab has not yet been rated for accuracy.Sorry, but you must be logged in to rate this tab.
Click here to log-in, or you can click here to register.
(Registration is free)

All songs owned by Integrity and Brentwood-Benson are used by permission. If you make copies of any song on this website, be sure to report your usage to CCLI.
Set the Record Straight
Bass Tab
MxPx
Slowly Going the Way of the Buffalo
 1998 A&M Records
Tabbed by Jeff McAleer



I play this song with a pick for speed, but I know some people can play
this fast with fingers.

Verse 1: 

---
---
-5-
---

You'll need to turn the volume on your bass off from the bass itself, not the amp.
Then, when the time comes, play that note, hold it with your left hand, and turn
up the volume on your bass with your right hand.  You'll get that fade in sound.



Verse 2:

-----------------------------------------------------------------------------
-----------------------------------------------------------------------------
----------------4-4-4-4-4-4-4-4-5-5-5-5-5-5-5-5-5-5-5-5-5-5-5-5--------------
5-5-5-5-5-5-5-5--------------------------------------------------play-twice--

-----------------------------------------------------------------------------
-----------------------------------------------------------------------------
----------------4-4-4-4-4-4-4-4-5-5-5-5-5-5-5-5-5-HOLD-----------------------
5-5-5-5-5-5-5-5--------------------------------------------------------------

-----------------------------------------------------------------------------
-----------------------------------------------------------------------------
----------------4-4-4-4-4-4-4-4-5-5-5-5-5-5-5-5-5-5-5-5-5-5-5-5--------------
5-5-5-5-5-5-5-5--------------------------------------------------------------

Chorus:

-----------------------------------------------------------------------------
-----------------------------------------------------------------------------
----------------2-2-2-2-2-2-2-2----------------------------------------------
2-2-2-2-2-2-2-2-----------------0-0-0-0-0-0-0-0-5-5-4-4----------------------

-----------------------------------------------------------------------------
-----------------------------------------------------------------------------
----------------2-2-2-2-2-2-2-2-5-5-5-5-5-5-5-5-7--7--7--7--7--7--7--7-------
2-2-2-2-2-2-2-2--------------------------------------------------------------

-----------------------------------------------------------------------------
-----------------------------------------------------------------------------
-----------------------------4--5-5-5-5-5-5-5-5-5-5-5-5-5-5-5-5--------------
5-5-5-5-5-5-5-5-2-2-2-2-2-2--------------------------------------play-twice--

Verse 3:

-----------------------------------------------------------------------------
-----------------------------------------------------------------------------
----------------4-4-4-4-4-4-4-4-5-5-5-5-5-5-5-5-5-5-5-5-5-5-5-5--------------
5-5-5-5-5-5-5-5--------------------------------------------------play-twice--

-----------------------------------------------------------------------------
-----------------------------------------------------------------------------
----------------4-4-4-4-4-4-4-4-5-5-5-5-5-5-5-5-5-HOLD-----------------------
5-5-5-5-5-5-5-5--------------------------------------------------------------

-----------------------------------------------------------------------------
-----------------------------------------------------------------------------
----------------4-4-4-4-4-4-4-4-5-5-5-5-5-5-5-5-5-5-5-5-5-5-5-5--------------
5-5-5-5-5-5-5-5--------------------------------------------------------------

Chorus:

-----------------------------------------------------------------------------
-----------------------------------------------------------------------------
----------------2-2-2-2-2-2-2-2----------------------------------------------
2-2-2-2-2-2-2-2-----------------0-0-0-0-0-0-0-0-5-5-4-4----------------------

-----------------------------------------------------------------------------
-----------------------------------------------------------------------------
----------------2-2-2-2-2-2-2-2-5-5-5-5-5-5-5-5-7--7--7--7--7--7--7--7-------
2-2-2-2-2-2-2-2--------------------------------------------------------------

-----------------------------------------------------------------------------
-----------------------------------------------------------------------------
-----------------------------4--5-5-5-5-5-5-5-5-5-5-5-5-5-5-5-5--------------
5-5-5-5-5-5-5-5-2-2-2-2-2-2--------------------------------------play-twice--

Verse 4:

----------------------------------------------------------------------------------
----------------------------------------------------------------------------------
----------------4-4-4-4-4-4-4-4-5-5-5-5-5-5-5-5-5-5-5-5-5-5-5-5-------------------
5-5-5-5-5-5-5-5--------------------------------------------------play-four-times--

Chorus:

-----------------------------------------------------------------------------
-----------------------------------------------------------------------------
----------------2-2-2-2-2-2-2-2----------------------------------------------
2-2-2-2-2-2-2-2-----------------0-0-0-0-0-0-0-0-5-5-4-4----------------------

-----------------------------------------------------------------------------
-----------------------------------------------------------------------------
----------------2-2-2-2-2-2-2-2-5-5-5-5-5-5-5-5-7--7--7--7--7--7--7--7-------
2-2-2-2-2-2-2-2--------------------------------------------------------------

-----------------------------------------------------------------------------
-----------------------------------------------------------------------------
-----------------------------4--5-5-5-5-5-5-5-5-5-5-5-5-5-5-5-5--------------
5-5-5-5-5-5-5-5-2-2-2-2-2-2--------------------------------------play-twice--

End:

-----------------------------------------------------------------------------
-----------------------------------------------------------------------------
----------------------------5-5-5-5-5-5-5-5-5-5-5-5-5-5-5-5------------------
5-5-5-5-5-5-5-5-2-2-2-2-2-2--------------------------------------play-twice--

-----------------------------------------------------------------------------
-----------------------------------------------------------------------------
-----------------------------4--5-5-5-5-5-5-5-5-5-5-5-5-5-5-5-5--------------
5-5-5-5-5-5-5-5-2-2-2-2-2-2--------------------------------------play-twice--

-----------------------------------------------------------------------------
-----------------------------------------------------------------------------
----------------------------5-5-5-5-5-5-5-5-5-5-5-5-5-5-5-5------------------
5-5-5-5-5-5-5-5-2-2-2-2-2-2--------------------------------------play-twice--

---------
---------
---------
5------5-

Jeff

Tell me what you think and email any corrections to supertabs@usa.net

Comments about this tab

No comments/corrections found. Add your own

Complimentary Christian Ringtones
Dadamobile and CGR have teamed up to bring your favorite Christian artists right to your phone. Sign up today and get 10 complementary ringtones!
Tab Country
Did you know CGR has a sister site w/ country guitar tabs? Well we do! Its called Tab Country. It has a great archive with a lot of country tabs.
Rockin Tabs
Are you looking for a site that has rock guitar tabs? Then Rockintabs.com is the place for you. It is a budding site with many rock guitar tabs. Submit your tab today.
Tab Gallery
Tab Gallery has a compilation of christian, rock, and country tabs all in one place. Come visit us.