Bass Tabs
(THIRD DAY) OR BY ARTIST NAME (JENNIFER KNAPP)
0-9|A|B|C|D|E|F|G|H|I|J|K|L|M|N|O|P|Q|R|S|T|U|V|W|X|Y|Z

Join Us Today!

Don't strum alone...
be a part of the largest online Christian music community. Browse thousands of guitar tabs and chat w/ musicians like yourself.


It's Free!

MxPx - Misunderstandings

This tab has not yet been rated for accuracy.Sorry, but you must be logged in to rate this tab.
Click here to log-in, or you can click here to register.
(Registration is free)

All songs owned by Integrity and Brentwood-Benson are used by permission. If you make copies of any song on this website, be sure to report your usage to CCLI.
+------------------------------------------+
\  Artist     :  MxPx                       \
/  Song       :  Misunderstandings          /
\  Instrument :  Bass                       \
/  Tabbed by  :  Mike!    /
\___________________________________________\

Intro:
G-|-7-7-7-7-7-9-11-9-9-9-9-9-11-12-12-12-11-12-12-12-11-10-7-7-7-12-11-10-7-|
D-|-0-0-0-0-0-0--0-0-0-0-0-0--0--0--0--0--0--0--0--0--0--0-0-0-0--0--0--0-0-|
A-|-------------------------------------------------------------------------|
E-|-------------------------------------------------------------------------|

G-|---------------------------------------------------------------------|
D-|-----------------------------------------5-4---------5-4-------------|
A-|-5-5-5-5-5-5-------------------------5-5-----7-5-5-5-----7-5-5-5-5-5-|
E-|-------------5-5-5-5-5-5-3-3-3-3-3-3---------------------------------|
been told once, been told twice
he just won't listen to advice
it's in God's book but he don't wanna look
his friends say it's so uncool
you're better off without those rules
your life's your own, you live it alone

G-|-----------------------------------------------------------------|
D-|-----------------------------------------------------------------|
A-|-----------------5-5-5-5-5-5-5-5-2-2-2-2-2-2-2-2-----------------|
E-|-3-3-3-3-3-3-3-3---------------------------------5-5-5-5-5-5-5-5-|
he can't ignore his misunderstanding leaves him sore
he can't explain why his life is full of so much pain

G-|-------------------------------------------------------------------|
D-|-------------------------------------------------------------------|
A-|---------5-------------------------------------------5-------------|
E-|-3-3-3-3---5-5-5-5-5-5-3-3-3-3-2-5-5-5-5-5-5-3-3-3-3---5-5-5-5-5-5-|

G-|-------------------|
D-|-------------------| \ x4
A-|-5-4---------------| /
E-|-----7-5-3-2-3-7-5-|

G-|-------------------------------------------------------------------------|
D-|---5-4-5-4-----5-4-5-4-------------------------------------------5-4-----|
A-|-5---------7-5---------7-----4-5-4-------4-5-4-5-------------5-5-----7-5-|
E-|-------------------------5-5-------7-5-5---------7-3-3-3-3-3-------------|

G-|---------------------------------------------------------------------|
D-|-----------------------------------------5-4---------5-4-------------|
A-|-5-5-5-5-5-5-------------------------5-5-----7-5-5-5-----7-5-5-5-5-5-|
E-|-------------5-5-5-5-5-5-3-3-3-3-3-3---------------------------------|
he parents pushed it on him
he wasn't ever really interested
now he's old enough to make up his own mind
he was only going thru the motion
now he's drawing in the ocean
of these hateful times & he believes he's right

G-|-----------------------------------------------------------------|
D-|-----------------------------------------------------------------|
A-|-----------------5-5-5-5-5-5-5-5-2-2-2-2-2-2-2-2-----------------|
E-|-3-3-3-3-3-3-3-3---------------------------------5-5-5-5-5-5-5-5-|
he can't ignore his misunderstanding leaves him sore
he can't explain why his life is full of so much pain

G-|-------------------------------------------------------------------|
D-|-------------------------------------------------------------------|
A-|---------5-------------------------------------------5-------------|
E-|-3-3-3-3---5-5-5-5-5-5-3-3-3-3-2-5-5-5-5-5-5-3-3-3-3---5-5-5-5-5-5-|

G-|-------------------|
D-|-------------------| \ x4
A-|-5-4---------------| /
E-|-----7-5-3-2-3-7-5-|

G-|-------------------------------------------------------------------------|
D-|---5-4-5-4-----5-4-5-4-------------------------------------------5-4-----|
A-|-5---------7-5---------7-----4-5-4-------4-5-4-5-------------5-5-----7-5-|
E-|-------------------------5-5-------7-5-5---------7-3-3-3-3-3-------------|
 \___x2

G-|---------------------------------------|
D-|-5-4---5-4---------5-4---5-4-----------|
A-|-----5-----5-5-5-5-----5-----5-5-5-5-5-|
E-|---------------------------------------|

G-|-----------------------------------------------------------|
D-|---------2-4-2-2-2-2-4-5-5-5-4-5-5-5-4-------5-4-----------| \ x2
A-|-5-5-5-5-------------------------------5-5-5-----7-5-5-5-5-| /
E-|-----------------------------------------------------------|

G-|---------------------|
D-|-5-4-------5-4-------|
A-|-----5-5-5-----5-5-5-|
E-|---------------------|

Comments about this tab

No comments/corrections found. Add your own

Complimentary Christian Ringtones
Dadamobile and CGR have teamed up to bring your favorite Christian artists right to your phone. Sign up today and get 10 complementary ringtones!
Tab Country
Did you know CGR has a sister site w/ country guitar tabs? Well we do! Its called Tab Country. It has a great archive with a lot of country tabs.
Rockin Tabs
Are you looking for a site that has rock guitar tabs? Then Rockintabs.com is the place for you. It is a budding site with many rock guitar tabs. Submit your tab today.
Tab Gallery
Tab Gallery has a compilation of christian, rock, and country tabs all in one place. Come visit us.