Bass Tabs
(THIRD DAY) OR BY ARTIST NAME (JENNIFER KNAPP)
0-9|A|B|C|D|E|F|G|H|I|J|K|L|M|N|O|P|Q|R|S|T|U|V|W|X|Y|Z

Join Us Today!

Don't strum alone...
be a part of the largest online Christian music community. Browse thousands of guitar tabs and chat w/ musicians like yourself.


It's Free!

MxPx - Like Sand Through The Hourglass

This tab has not yet been rated for accuracy.Sorry, but you must be logged in to rate this tab.
Click here to log-in, or you can click here to register.
(Registration is free)

All songs owned by Integrity and Brentwood-Benson are used by permission. If you make copies of any song on this website, be sure to report your usage to CCLI.
+---------------------------------------------------+
\  Artist     :  MxPx                                \
/  Song       :  Like Sand Through the Hourglass...  /
\  Instrument :  Bass                                \
/  Tabbed by  :  Mike!             /
\____________________________________________________\

Intro:
G-|---------|
D-|---------|
A-|-3---1---|
E-|-------1-|
it seems like every time i get something going
G-|---------------------------------|
D-|---------------------------------|
A-|-3-3-3-3-0-0-0-0-1-1-1-1---------|
E-|-------------------------1-1-1-1-|
it falls apart right in my hands
it seems like every time i get it figured out and
i have no doubt, that's when i'm farthest from the truth

G-|---------------------------------------|
D-|---------------------------------------|
A-|-3-3-3-3-3-3---------------------------|
E-|-------------3-3-3-3-3-3-1-1-1-1-1-1-3-|
my world is breaking down around me
i see my destroyed world in front of me
any and every thing i trusted
i weep for my world disgusted

G-|-------------------------------------------------------|
D-|-----2-------2-----------------------3-3-3---3-3-3-3-3-| \ x2
A-|-3-5---5-3-5---5-3---2-3-2---2-3-5-3-------5-----------| /
E-|-------------------3-------3---------------------------|

G-|---------|
D-|---------|
A-|-3-0-1---|
E-|-------1-|

G-|---------------------------------|
D-|---------------------------------|
A-|-3-3-3-3-0-0-0-0-1-1-1-1---------|
E-|-------------------------1-1-1-1-|
i always learn the hard way, there ain't an easy way to learn
that's what i've learned
was i tought the right things tought the right?
i don't know and that is all i know

G-|---------------------------------------|
D-|---------------------------------------|
A-|-3-3-3-3-3-3---------------------------|
E-|-------------3-3-3-3-3-3-1-1-1-1-1-1-3-|
my world is breaking down around me
i see my destroyed world in front of me
any and every thing i trusted
i weep for my world disgusted

G-|-------------------------------------------------------|
D-|-----2-------2-----------------------3-3-3---3-3-3-3-3-| \ x2
A-|-3-5---5-3-5---5-3---2-3-2---2-3-5-3-------5-----------| /
E-|-------------------3-------3---------------------------|

G-|---------|
D-|---------|
A-|-3-0-1---|
E-|-------1-|

G-|-------------------------------|
D-|-------5-------5-------5---5/7-| \ x4
A-|-3-3-3---3-3-3---3-3-3---3-----| /
E-|-------------------------------|

G-|---------|
D-|---------|
A-|-3-0-1---|
E-|-------1-|

Comments about this tab

kbozeman - 2005-03-02

I think that this song was actually written in an alternate tuning. I left a comment about it on the tab for "Nailholes".


Add a comment/correction

Complimentary Christian Ringtones
Dadamobile and CGR have teamed up to bring your favorite Christian artists right to your phone. Sign up today and get 10 complementary ringtones!
Tab Country
Did you know CGR has a sister site w/ country guitar tabs? Well we do! Its called Tab Country. It has a great archive with a lot of country tabs.
Rockin Tabs
Are you looking for a site that has rock guitar tabs? Then Rockintabs.com is the place for you. It is a budding site with many rock guitar tabs. Submit your tab today.
Tab Gallery
Tab Gallery has a compilation of christian, rock, and country tabs all in one place. Come visit us.