Bass Tabs
(THIRD DAY) OR BY ARTIST NAME (JENNIFER KNAPP)
0-9|A|B|C|D|E|F|G|H|I|J|K|L|M|N|O|P|Q|R|S|T|U|V|W|X|Y|Z

Join Us Today!

Don't strum alone...
be a part of the largest online Christian music community. Browse thousands of guitar tabs and chat w/ musicians like yourself.


It's Free!

MxPx - Inquiring Minds Want To Know

This tab has been rated a 5.00 out of 5 for accuracy. (2 votes)Sorry, but you must be logged in to rate this tab.
Click here to log-in, or you can click here to register.
(Registration is free)

All songs owned by Integrity and Brentwood-Benson are used by permission. If you make copies of any song on this website, be sure to report your usage to CCLI.
+---------------------------------------------+
\  Artist     :  MxPx                          \
/  Song       :  Inquiring Minds Want To Know  /
\  Instrument :  Bass                          \
/  Tabbed by  :  Mike!       /
\______________________________________________\

Intro:
G-|---------------------------------------------|
D-|---------------------------------------------|
A-|-----------------5-7-8-----------------8-7-5-|
E-|-5-7-7-7-5-7-7-7-------5-7-7-7-5-7-7-7-------|

G-|-----------------------------------------------------------------|
D-|-----------------------------------------------------------------|
A-|-----------------5-7-8-----------------8-7-5-5-7-8-8-7-5-8-7-----|
E-|-5-7-7-7-5-7-7-7-------5-7-7-7-5-7-7-7-----------------------7-7-|

G-|---------------------|
D-|---------------------|
A-|-------------5-3-----|
E-|-7-7-7-7-7-7-----3-5-|
how you fell depends on what you think about
what you need depends on what you can't live without
how you act goes right back to the way you feel
what you see isn't always what is real

G-|-----------------------------------------------------|
D-|-----------------------------------------------------|
A-|-------------------------5-5-5-5-5-5---------5-5-5-5-|
E-|-7-7-7-7-7-7-5-5-5-5-5-5-------------3-3-3-3---------|
so where do we go? and what do we do?
you're asking me and i'm asking you
to be real with yourself and don't play the game
of daily life, it's all the same

G-|-------------------------------|
D-|-------------------------------| \ x2
A-|-----------5-5-5-----------5-7-| /
E-|-8-7-7-7-3-------8-7-7-7-3-----|

G-|---------------------------------------|
D-|---------------------------------------| \ x2
A-|---9-7-9-7-5---------5-5-5---7-7-7-9-7-| /
E-|-7-----------7-7-7-5-------7-----------|

G-|---------------------|
D-|---------------------|
A-|-------------5-3-----|
E-|-7-7-7-7-7-7-----3-5-|
the way you think depends on what you're going thru
what you create comes from deep inside of you
what you know makes the difference in what you hate
what you love depends on how you relate

G-|-----------------------------------------------------|
D-|-----------------------------------------------------|
A-|-------------------------5-5-5-5-5-5---------5-5-5-5-|
E-|-7-7-7-7-7-7-5-5-5-5-5-5-------------3-3-3-3---------|
so where do we go? and what do we do?
you're asking me and i'm asking you
to be real with yourself and don't play the game
of daily life, it's all the same

G-|-------------------------------|
D-|-------------------------------| \ x2
A-|-----------5-5-5-----------5-7-| /
E-|-8-7-7-7-3-------8-7-7-7-3-----|

G-|------------------------------------------------------------|\
D-|------------------------7-5-----------7-----5-3-------------| \
A-|---9------7-7-5-------7-----7-5-5-7-9-----5-----5-3-3-------| /
E-|-7---9/10-------9-7-5-------------------3-------------6-5-3-|/
                                                               /
G-|---------------------------------|                         /
D-|-----------------------2-3-5-3-2-|                        /  x2
A-|---------0-1-0-1-3-5-3-----------|                       /
E-|-1-0-1-3-------------------------|                      /

G-|-------------------------------------------------------------------|
D-|-------------------------------------------------------------------|
A-|-----------5-5-5-----------5-7-----------5-5-5-----------5-5-7-5-7-|
E-|-8-7-7-7-3-------8-7-7-7-3-----8-7-7-7-3-------8-7-7-7-3-----------|

Comments about this tab

2moz - 2005-08-03

i think the solo goes like this



e 5 5 7 7 9 9 7 7h9p7
B 5 5 5 5 5 5
G
D
A
E


2moz - 2005-08-03


e 5 5 7 7 9 9 7 7h9p7
B 5 5 5 5 5 5
G
D
A
E


2moz - 2005-08-03


e-5---5---7---7---9---9---7---7h9p7-----||
B---5---5---5---5---5---5---5-----------||
G---------------------------------------||
D---------------------------------------||
A---------------------------------------||
E---------------------------------------||


Add a comment/correction

Complimentary Christian Ringtones
Dadamobile and CGR have teamed up to bring your favorite Christian artists right to your phone. Sign up today and get 10 complementary ringtones!
Tab Country
Did you know CGR has a sister site w/ country guitar tabs? Well we do! Its called Tab Country. It has a great archive with a lot of country tabs.
Rockin Tabs
Are you looking for a site that has rock guitar tabs? Then Rockintabs.com is the place for you. It is a budding site with many rock guitar tabs. Submit your tab today.
Tab Gallery
Tab Gallery has a compilation of christian, rock, and country tabs all in one place. Come visit us.