Bass Tabs
(THIRD DAY) OR BY ARTIST NAME (JENNIFER KNAPP)
0-9|A|B|C|D|E|F|G|H|I|J|K|L|M|N|O|P|Q|R|S|T|U|V|W|X|Y|Z

Join Us Today!

Don't strum alone...
be a part of the largest online Christian music community. Browse thousands of guitar tabs and chat w/ musicians like yourself.


It's Free!

MxPx - Falling Down

This tab has not yet been rated for accuracy.Sorry, but you must be logged in to rate this tab.
Click here to log-in, or you can click here to register.
(Registration is free)

All songs owned by Integrity and Brentwood-Benson are used by permission. If you make copies of any song on this website, be sure to report your usage to CCLI.
+------------------------------------------+
\  Artist     :  MxPx                       \
/  Song       :  Falling Down               /
\  Instrument :  Bass                       \
/  Tabbed by  :  Mike!    /
\___________________________________________\

G-|---------------------------------|
D-|---------------------------------|
A-|-3-------------------------------|
E-|-----------------1-1-1-1-3-3-3-3-|
you're only interested when our power's threatened
you're only paranoid cause you know what you're doing

G-|-----------------------------------------------------------------|
D-|-----------------------------------------------------------------|
A-|-----------------3-3-3-3-3-3-3-3-3-3-3-3-3-3-3-3-----------------|
E-|-1-1-1-1-3-3-3-3---------------------------------1-1-1-1-3-3-3-3-|
you know what you've done and what you're about to do
the conspiracy to your inconsistency
G-|-----------------------------------------2-0-----|
D-|-----------------2-3-0-2---------------------2-0-|
A-|-3-3-3-3-3-3-3-3---------3-3-3-3-3-3-3-3---------|
E-|-------------------------------------------------|
could it be your spirit's dead?

G-|---|
D-|-5-|
A-|---|
E-|---|

G-|---------------------------------|
D-|---------------------------------|
A-|-3-------------------------------|
E-|-----------------1-1-1-1-3-3-3-3-|
why do you run away when faced with these questions?
i know you know it
but you just won't say you built this conformist system

G-|-----------------------------------------------------------------|
D-|-----------------------------------------------------------------|
A-|-----------------3-3-3-3-3-3-3-3-3-3-3-3-3-3-3-3-----------------|
E-|-1-1-1-1-3-3-3-3---------------------------------1-1-1-1-3-3-3-3-|
you built this state and now you're falling down
the conspiracy to your inconsistency
G-|-----------------------------------------2-0-----|
D-|-----------------2-3-0-2---------------------2-0-|
A-|-3-3-3-3-3-3-3-3---------3-3-3-3-3-3-3-3---------|
E-|-------------------------------------------------|
could it be your spirit's dead?

G-|---|
D-|-5-|
A-|---|
E-|---|

G-|-------|
D-|---3/5-| \ x16
A-|-3-----| /
E-|-------|

G-|---------------------------------|
D-|---------------------------------|
A-|-3-------------------------------|
E-|-----------------1-1-1-1-3-3-3-3-|
your education teaches us not to resist
subjects don't question kings
it disrespect, they slam you in the face with their fist

G-|-----------------------------------------------------------------|
D-|-----------------------------------------------------------------|
A-|-----------------3-3-3-3-3-3-3-3-3-3-3-3-3-3-3-3-----------------|
E-|-1-1-1-1-3-3-3-3---------------------------------1-1-1-1-3-3-3-3-|
you'll do anything to keep from falling down!
the conspiracy to your inconsistency
G-|-----------------------------------------2-0-----|
D-|-----------------2-3-0-2---------------------2-0-|
A-|-3-3-3-3-3-3-3-3---------3-3-3-3-3-3-3-3---------|
E-|-------------------------------------------------|
could it be your spirit's dead?

G-|---|
D-|-5-|
A-|---|
E-|---|

Comments about this tab

Zboy4God - 2006-10-02

I love this song thanks


Add a comment/correction

Complimentary Christian Ringtones
Dadamobile and CGR have teamed up to bring your favorite Christian artists right to your phone. Sign up today and get 10 complementary ringtones!
Tab Country
Did you know CGR has a sister site w/ country guitar tabs? Well we do! Its called Tab Country. It has a great archive with a lot of country tabs.
Rockin Tabs
Are you looking for a site that has rock guitar tabs? Then Rockintabs.com is the place for you. It is a budding site with many rock guitar tabs. Submit your tab today.
Tab Gallery
Tab Gallery has a compilation of christian, rock, and country tabs all in one place. Come visit us.