Bass Tabs
(THIRD DAY) OR BY ARTIST NAME (JENNIFER KNAPP)
0-9|A|B|C|D|E|F|G|H|I|J|K|L|M|N|O|P|Q|R|S|T|U|V|W|X|Y|Z

Join Us Today!

Don't strum alone...
be a part of the largest online Christian music community. Browse thousands of guitar tabs and chat w/ musicians like yourself.


It's Free!

MxPx - Dos and Donts

This tab has not yet been rated for accuracy.Sorry, but you must be logged in to rate this tab.
Click here to log-in, or you can click here to register.
(Registration is free)

All songs owned by Integrity and Brentwood-Benson are used by permission. If you make copies of any song on this website, be sure to report your usage to CCLI.
+------------------------------------------+
\  Artist     :  MxPx                       \
/  Song       :  Do & Don't                 /
\  Instrument :  Bass                       \
/  Tabbed by  :  Mike!    /
\___________________________________________\

G-|-------------------------------------------------------|
D-|-------------------------------------------------------|
A-|-----------------2-2-2-2-2-2-2-2-0-0-0-0-0-0-0-0-3-2-0-|
E-|-3-3-3-3-3-3-3-3---------------------------------------|
i still don't know what i want to do
i'd probably still ask you if i knew
what i'm doing now seems to be okay
if it's your will if it's your way

G-|-------------------------------------|
D-|-------------------------------------|
A-|-----2-5-----2-5-----2-5-------------|
E-|-3-------3-------3-------3-3-3-3-3-3-|

G-|-----------------------------------------------------------------|
D-|-----------------------------------------------------------------|
A-|-----------------2-2-2-2-2-2-2-2-0-0-0-0-0-0-0-0-3-3-3-3-3-3-3-3-|
E-|-3-3-3-3-3-3-3-3-------------------------------------------------|
don't want to have to deal with pointless bureaucracy
making sure where something goes or making sure that your agree
G-|-------------------------------------|
D-|-------------------------------------|
A-|-----------------2-2-2-2-2-2-2-2-0-3-|
E-|-3-3-3-3-3-3-3-3---------------------|
well i don't even know what my choices are
should i fly a plane, or should i drive a car?
G-|-----------------------------------------------------------------|
D-|-----------------------------------------------------------------|
A-|-----------------2-2-2-2-2-2-2-2-0-0-0-0-0-0-0-0-3-3-3-3-3-3-3-3-|
E-|-3-3-3-3-3-3-3-3-------------------------------------------------|
nothing's clear to me, my eyes won't do a thing for me
i'll just wait right here, until i am what i will be
G-|-------------------------------------|
D-|-------------------------------------|
A-|-----------------2-2-2-2-2-2-2-2-0-3-|
E-|-3-3-3-3-3-3-3-3---------------------|
whatever it is i'm sure ill know, when the time comes he will show
me what to do, and me where to go

G-|-----------------------------------------------------|
D-|-----------------------------------------------------|
A-|---------------------------3-3-3-3-3-5-5-5-5-5-5-5-5-|
E-|-3-3-3-3-3-0-0-0-0-0-0-0-0---------------------------|
where to go

G-|-----------------------------------------------------|
D-|-----------------------------------------------------|
A-|---------------------------3-3-3-3-3-5-5-5-5-5-5-5-5-|
E-|-3-3-3-3-3-0-0-0-0-0-0-0-0---------------------------|
i still don't know what i want to do
i'd probably still ask you if i knew
what i'm doing now seems to be okay
if it's your will if it's your way

G-|---------------------------------|
D-|---------------------------------|
A-|-----------------5-5-5-5-5-5-5-5-|
E-|-5-5-5-5-5-5-5-5-----------------|
all i've got is a skateboard and a guitar
i go to a lot of punk shows a i drive a car

G-|-------|
D-|-------|
A-|-3-2-0-|
E-|-------|

G-|-------------------------|
D-|-------------------------| \ x2
A-|-------2-0-2-3-2-0-5-3-2-| /
E-|-3-2-3-------------------|

G-|-------------------------------------------------|
D-|-------------------------------------------------|
A-|-------------2-2-2-2-2-2-0-0-0-0-0-0-3-3-3-3-3-3-|
E-|-3-3-3-3-3-3-------------------------------------|
i don't like to work and i don't like to go to school
the teachers think that i'm a girl and the kids they think that i'm uncool
i'm just not interested in much of anything
wouldn't want to be a president, don't want to be a king
i just want to ride my skateboard just want to play my bass
every now and then strum a chord, sometimes land right on my face
have you any ideas? i can't tell by a chart
i wanna do what he wants me to, i'm gonna do my part-yah!

G-|-----------------------------------------------------|
D-|-----------------------------------------------------|
A-|---------------------------3-3-3-3-3-5-5-5-5-5-5-5-5-|
E-|-3-3-3-3-3-0-0-0-0-0-0-0-0---------------------------|
do my part

G-|-----------------------------------------------------|
D-|-----------------------------------------------------|
A-|---------------------------3-3-3-3-3-5-5-5-5-5-5-5-5-|
E-|-3-3-3-3-3-0-0-0-0-0-0-0-0---------------------------|
i still don't know what i want to do
i'd probably still ask you if i knew
what i'm doing now seems to be okay
if it's your will if it's your way

G-|-----------------------------------------------------|
D-|-----------------------------------------------------|
A-|---------------------------3-3-3-3-3-5-5-5-5-5-5-5-5-|
E-|-3-3-3-3-3-0-0-0-0-0-0-0-0---------------------------|
if it's your way

G-|---------------------------------|
D-|---------------------------------|
A-|-----------------5-5-5-5-5-5-5-5-|
E-|-5-5-5-5-5-5-5-5-----------------|
all i've got is a skateboard and a guitar
i go to a lot of punk shows a i drive a car

G-|-------|
D-|-------|
A-|-3-2-0-|
E-|-------|

G-|-------------------------|
D-|-------------------------| \ x4
A-|-------2-0-2-3-2-0-5-3-2-| /
E-|-3-2-3-------------------|

G-|-------------------------------------------------------|
D-|-------------------------------------------------------|
A-|-----------------2-2-2-2-2-2-2-2-0-0-0-0-0-0-0-0-3-2-0-|
E-|-3-3-3-3-3-3-3-3---------------------------------------|
i still don't know what i want to do
i'd probably still ask you if i knew
what i'm doing now seems to be okay
if it's your will if it's your way

G-|-------------------------------------|
D-|-------------------------------------|
A-|-----2-5-----2-5-----2-5-------------|
E-|-3-------3-------3-------3-3-3-3-3-3-|

Comments about this tab

No comments/corrections found. Add your own

Complimentary Christian Ringtones
Dadamobile and CGR have teamed up to bring your favorite Christian artists right to your phone. Sign up today and get 10 complementary ringtones!
Tab Country
Did you know CGR has a sister site w/ country guitar tabs? Well we do! Its called Tab Country. It has a great archive with a lot of country tabs.
Rockin Tabs
Are you looking for a site that has rock guitar tabs? Then Rockintabs.com is the place for you. It is a budding site with many rock guitar tabs. Submit your tab today.
Tab Gallery
Tab Gallery has a compilation of christian, rock, and country tabs all in one place. Come visit us.