Bass Tabs
(THIRD DAY) OR BY ARTIST NAME (JENNIFER KNAPP)
0-9|A|B|C|D|E|F|G|H|I|J|K|L|M|N|O|P|Q|R|S|T|U|V|W|X|Y|Z

Join Us Today!

Don't strum alone...
be a part of the largest online Christian music community. Browse thousands of guitar tabs and chat w/ musicians like yourself.


It's Free!

MxPx - Democracy

This tab has not yet been rated for accuracy.Sorry, but you must be logged in to rate this tab.
Click here to log-in, or you can click here to register.
(Registration is free)

All songs owned by Integrity and Brentwood-Benson are used by permission. If you make copies of any song on this website, be sure to report your usage to CCLI.
+------------------------------------------+
\  Artist     :  MxPx                       \
/  Song       :  Democracy                  /
\  Instrument :  Bass                       \
/  Tabbed by  :  Mike!    /
\___________________________________________\

G-|-----------------------------------------------------------------|
D-|-----------------------------------------------------------------|
A-|---------5-5-5-5---------3-3-3-3---------5-5-5-5-3-3-3-3-3-3-3-5-|
E-|-3-3-3-3---------3-3-3-3---------3-3-3-3-------------------------|
believing the lies defines american
they don't realize their ignorance and sin
democracy ain't real it's a fairytale
anarchy now then spend the night in jail

G-|-----------------------------------------------|
D-|-----------------------------------------------|
A-|---------3---------3---------3-5-5-5-5-5-5-5-5-|
E-|-3-3-3-3---3-3-3-3---3-3-3-3-------------------|
i won't pretend that it ain't wrong
i won't just go along
humanity is deseased
and the sickness has increased

G-|-------------------------------------------------|
D-|-------------------------------------------------|
A-|-3-2-0---0-2-3-2-0---0-2-3-2-0---0-2-3-2-0-5-3-2-|
E-|-------3-----------3-----------3-----------------|

G-|-----------------------------------------------|
D-|-----------------------------------------------|
A-|---------3---------3---------3-5-5-5-5-5-5-5-5-|
E-|-3-3-3-3---3-3-3-3---3-3-3-3-------------------|

G-|-----------------------------------------------------------------|
D-|-----------------------------------------------------------------|
A-|---------5-5-5-5---------3-3-3-3---------5-5-5-5-3-3-3-3-3-3-3-5-|
E-|-3-3-3-3---------3-3-3-3---------3-3-3-3-------------------------|
for the people by the people
who's considered people anyway?
the rich get richer and the poor get poorer
so much for equal opportunity!

G-|-----------------------------------------------|
D-|-----------------------------------------------|
A-|---------3---------3---------3-5-5-5-5-5-5-5-5-|
E-|-3-3-3-3---3-3-3-3---3-3-3-3-------------------|
i won't pretend that it ain't wrong
i won't just go along
humanity is deseased
and the sickness has increased

G-|-------------------------------------------------|
D-|-------------------------------------------------|
A-|-3-2-0---0-2-3-2-0---0-2-3-2-0---0-2-3-2-0-5-3-2-|
E-|-------3-----------3-----------3-----------------|

G-|-------------------------------------------------|
D-|-------------------------------------------------|
A-|---------3---------3---------3-5-5-5-5-5-5-5-5---|
E-|-3-3-3-3---3-3-3-3---3-3-3-3-------------------3-|

Comments about this tab

No comments/corrections found. Add your own

Complimentary Christian Ringtones
Dadamobile and CGR have teamed up to bring your favorite Christian artists right to your phone. Sign up today and get 10 complementary ringtones!
Tab Country
Did you know CGR has a sister site w/ country guitar tabs? Well we do! Its called Tab Country. It has a great archive with a lot of country tabs.
Rockin Tabs
Are you looking for a site that has rock guitar tabs? Then Rockintabs.com is the place for you. It is a budding site with many rock guitar tabs. Submit your tab today.
Tab Gallery
Tab Gallery has a compilation of christian, rock, and country tabs all in one place. Come visit us.